Gob - Paint It Black Chords & Tabs

 

Paint It Black Chords & Tabs

Gob Chords & Tabs

Version: 2 Type: Tab 1 rating
1 star 2 stars 3 stars 4 stars 5 stars
comments

Paint It Black Tab

amazing song


d#---0---0---0--0--0--0--0---0----------------------------------------------------
b---4--6---7---9--7--6--4--4---3-4-6-3h4h5-4-3---3~-------------------------------
g----------------------------------------------5----------------------------------
d---------------------------------------------------------------------------------
a---------------------------------------------------------------------------------
d---------------------------------------------------------------------------------

Drums come in, and then this: (Don\'t forget pick scrap down the neck)

d#--------------------------------------------------------------------------------
b---------------------------------------------------------------------------------
g---------------------------------------------------------------------------------
d--1~-----------------------------------------------------------------------------
a--1~-----------------------------------------------------------------------------
d--1~-----------------------------------------------------------------------------

Then the verse, play these two chords with heavy palm-muting:
[ Tab from: http://www.guitartabs.cc/tabs/g/gob/paint_it_black_tab_ver_2.html ]
d#--------------------------------------------------------------------------------
b---------------------------------------------------------------------------------
g---------------------------------------------------------------------------------
d--1---------8--------------------------------------------------------------------
a--1---------8--------------------------------------------------------------------
d--1---and---8--------------------------------------------------------------------



d#--------------------------------------------------------------------------------
b---------------------------------------------------------------------------------
g--8--6-6-----6-6-----------------------------------------------------------------
d--8--6-6--4--6-6--6-6-6-6--8-8-8-8-8---------------------------------------------
a--6--4-4--4--4-4--6-6-6-6--8-8-8-8-8---------------------------------------------
d----------4-------6-6-6-6--8-8-8-8-8---------------------------------------------



While guitar1 plays the last part, guitar2 is playing something like this (It\'s subtle)


d#--0-----0-----0-----0-----0----0---0--------------------------------------------
b--4--4-6---6-7---7-6---6-7--7-9---7--7-6-----------------------------------------
g---------------------------------------------------------------------------------
d---------------------------------------------------------------------------------
a---------------------------------------------------------------------------------
d---------------------------------------------------------------------------------
Comments