Gob - Paint It Black Chords & Tabs

 

Paint It Black Chords & Tabs

Gob Chords & Tabs

Version: 1 Type: Tab 0 ratings
1 star 2 stars 3 stars 4 stars 5 stars
comments

Paint It Black Tab

Paint It Black - Gob

Tune E down to D and listen to the song 4 timing this is my first tab so take it easy on me
it took me 4ever and any comment changes correction or shit like that would be appreciated


Intro
e ----0-0-0—0-0-0-0-0-0-0-0------------------
B ---5-7-8-10-8-7-5-5-4-5-7-4h5h7--5p4p2/4
G ---------------------------------------------------          x1

After drums slide down neck 
e--------------------------------------------------       
B--------------------------------------------------
G--------------------------------------------------       x1
D---------------------—7/1~ --------------------
A---------------------—7/1~ --------------------
D---------------------—7/1~ --------------------



Part1
               ..red door/and I want……
e-------------------------------------------------- 
B-------------------------------------------------
G--------------------------------------------------
D----1-1-1-1-1-1-1-1/8-8-8-8-8-8-8---------x2
A----1-1-1-1-1-1-1-1/8-8-8-8-8-8-8---------
D----1-1-1-1-1-1-1-1/8-8-8-8-8-8-8---------

[ Tab from: http://www.guitartabs.cc/tabs/g/gob/paint_it_black_tab.html ]
Part2
    I  see the girls walk by…summer clothes…….
e------------------------------------------------------------
B------------------------------------------------------------
G---7---5-5-5----------3-3—7—7—7-7-xxx---i don’t- 
D---7---5-5-5—3-3---3-3—7—7—7-7-xxx—know-      x2
A---5---3-3-3—3-3---1-1—5—5---5-5-xxx----the---
D-----------------3-3--------------------------------riff----

Part3
    No more….my green sea go ……deeper blue
e-----------------------------------------------------------
B----------5-7-8-10-8-7-5-5-4-5-7-5p4p2-4----------x2
G-----------------------------------------------------------

Part4
       This part goes along with the drums
  hmmm hmmm hmmm hmmm hmmm hmmmm 
e----------------------------------------------------------
B---------------------------------------------------------
G---------------------------------------------------------
D----1—1-1-1-1-1-1—1/8—8-8-8-8-8-8—8------x4
A----1—1-1-1-1-1-1—1/8—8-8-8-8-8-8—8-----
D----1—1-1-1-1-1-1—1/8—8-8-8-8-8-8—8-----


outro
e--------------------------------------------------------- 
B---------------------------------------------------------
G----------------------------------------------------------x1
D--------------------8—8-8-8—8-----------------------
A--------------------8—8-8-8—8-----------------------
D--------------------8—8-8-8—8-----------------------

intro
Part1                 sorry foOs I anint writing out no lyrics took me long enough to do this 
Part2                have fun andyou may need to improvise a bit
Part1
Part2			PeaCe     \_/   bLoNd jAp
Part1                                                   ^
Part2
Part3
Part2
Part1
Part2
Part4
Part3 x7
outro

Comments