Gob - Paint It Black Chords & Tabs

 

Paint It Black Chords & Tabs

Gob Chords & Tabs

Version: 2 Type: Bass Tab 0 ratings
1 star 2 stars 3 stars 4 stars 5 stars
comments

Paint It Black Bass Tab

Paint It Black - gob
tabbed by: ryan b

Play in Drop D

***rest for guitar/drums (0:00 - 0:15)***

Riff A: (once)
A-----------------
D--(pickslide)-1--

Riff B: (twice)
A---------------------11111111-11111111--
D--11111111-11111111---------------------

Riff C: (once)
A--6-6--4-4------4-4---------------------
D------------4-4------6--66-6-6-6-66666--

Riff D: (once)
A--6-6--4-4------4-4---------------------
D------------4-4------6--66-6-8-8-88888--
[ Tab from: http://www.guitartabs.cc/tabs/g/gob/paint_it_black_btab_ver_2.html ]
Riff B: (twice)
Riff C: (once)
Riff D: (once)

Riff E: (twice)
A---------------------1------------------
D--1-------------------------------------

Riff C: (once)
Riff D: (once)
Riff B: (twice)
Riff C: (once)
Riff D: (once)

Riff F: (7 times)
A--------------------------------------------
D--1---1-1-1-1--1-1-1-1--1-1-1-1-1-1-1-1--1--

Riff G: (once)
A------------------------
D--1---1-1-1-1--1-1-1-1--

***break for "I want to see it..." (2:35)***

Riff B: (7 times)

Riff H: (once)
A---------------
D--1---1-1-1-1--

Comments