Gob - Oh Ellen Chords & Tabs

 

Oh Ellen Chords & Tabs

Gob Chords & Tabs

Version: 1 Type: Tab 0 ratings
1 star 2 stars 3 stars 4 stars 5 stars
comments

Oh Ellen Tab

ok, i cannot believe nobody has already tabbed this...but here goes nuthin


Intro x2 (play up & down)
e--------------------------------------------------------------------|
B--------------------------------------------------------------------|
G-----------------------------------5-5-5-5-5-5-5-5------------------|
D-7-7-7-7-7-7-7-7?-3-3-3-3-3-3-3-3?-5-5-5-5-5-5-5-5?-5-5-5-5-5-5-5-5-|
A-7-7-7-7-7-7-7-7?-3-3-3-3-3-3-3-3?-3-3-3-3-3-3-3-3?-5-5-5-5-5-5-5-5-|
E-5-5-5-5-5-5-5-5?-1-1-1-1-1-1-1-1-------------------3-3-3-3-3-3-3-3-|
p.m. . . . . . . . . . . . . . . . . . . . . . . . . . . . . . . . ..

Chorus
e--------------------------------------------------------------------|
B--------------------------------------------------------------------|
G-----------------------------------5-5-5-5-5-5-5-5------------------|
D-7-7-7-7-7-7-7-7?-3-3-3-3-3-3-3-3?-5-5-5-5-5-5-5-5?-5-5-5-5-5-5-5-5-|
A-7-7-7-7-7-7-7-7?-3-3-3-3-3-3-3-3?-3-3-3-3-3-3-3-3?-5-5-5-5-5-5-5-5-|
E-5-5-5-5-5-5-5-5?-1-1-1-1-1-1-1-1-------------------3-3-3-3-3-3-3-3-|

e--------------------------------------------------------------------|
B--------------------------------------------------------------------|
G-----------------------------------5-5-5-5-5-5-5-5------------------|
D-7-7-7-7-7-7-7-7?-3-3-3-3-3-3-3-3?-5-5-5-5-5-5-5-5?-5-5-5-5-5-5-5-5-|
A-7-7-7-7-7-7-7-7?-3-3-3-3-3-3-3-3?-3-3-3-3-3-3-3-3?-5-5-5-5-5-5-5-5-|
E-5-5-5-5-5-5-5-5?-1-1-1-1-1-1-1-1-------------------3-3-3-3-3-3-3-3-|

Pre-verse (guitar 1 plays top line, listen for the timing)
e--------------------------------------------------------------------|
B-10-10-10-10-10-10-10-10-10--15-13-10--15-13-10---------------------|
G--------------------------------------------------------------------|
D-7-7-7-7-7-7-7-7?-7-7-7-7-7-7-7-7--7-7-7-7-7-7-7-7--7-7-7-7-7-7-7-7-|
A-7-7-7-7-7-7-7-7?-7-7-7-7-7-7-7-7--7-7-7-7-7-7-7-7--7-7-7-7-7-7-7-7-|
E-5-5-5-5-5-5-5-5?-5-5-5-5-5-5-5-5--5-5-5-5-5-5-5-5--5-5-5-5-5-5-5-5-|

Verse
e-------------------------------------------------------------------|
B-------------------------------------------------------------------|
G-------------------------------------------------------------------|
D-5-5-5-5-5-5-5-5-5-5-5-5-5-5-5-5--7-7-7-7-7-7-7-7--3-3-3-3-3-3-3-3-|
A-5-5-5-5-5-5-5-5-5-5-5-5-5-5-5-5--7-7-7-7-7-7-7-7?-3-3-3-3-3-3-3-3-|
E-3-3-3-3-3-3-3-3-3-3-3-3-3-3-3-3--5-5-5-5-5-5-5-5?-1-1-1-1-1-1-1-1-|
p.m.. . . . . . . . . . . . . . .  . . . . . . . .  . . . . . . . .

e------------------------------------------------------------------|
B------------------------------------------------------------------|
G------------------------------------------------------------------|
D-5-5-5-5-5-5-5-5-5-5-5-5-5-5-5-5--7-7-7-7-7-7-7-7--3--3-3-3-3-3-3-|
A-5-5-5-5-5-5-5-5-5-5-5-5-5-5-5-5--7-7-7-7-7-7-7-7?-3--3-3-3-3-3-3-|
E-3-3-3-3-3-3-3-3-3-3-3-3-3-3-3-3--5-5-5-5-5-5-5-5?-1--1-1-1-1-1-1-|
p.m.. . . . . . . . . . . . . . .  . . . . . . . .     . . . . . .


repeat that verse part again, then
e----------------------------------------------------------------|
B----------------------------------------------------------------|
G----------------------------------------------------------------|
D-7-7-7-7-7-7-7-7--3--3-3-3-3-3-3-3------------------------------|
A-7-7-7-7-7-7-7-7?-3--3-3-3-3-3-3-3------------------------------|
E-5-5-5-5-5-5-5-5?-1--1-1-1-1-1-1-1------------------------------|
p.m.. . . . . . .     . . . .

Chorus (play same as before)

Now the part I call the ?post-chorus?
e------0------0------0-----0-------0------0---------------------|
B---------------------------------------------------------------|
G-----------------------------5-5----5-5------------------------|
D-7-7----7-7----3-3----3-3----5-5----5-5----5-5?-5-5?-5-5-5-5~~-|
A-7-7----7-7----3-3----3-3----3-3----3-3----5-5--5-5?-5-5-5-5~~-|
E-5-5----5-5----1-1----1-1------------------3-3?-3-3--3-3-3-3~~-|


Verse (start on the 5,7,7 part)
[ Tab from: http://www.guitartabs.cc/tabs/g/gob/oh_ellen_tab.html ]
Chorus x2 (first = normal, then play this once the second time)
e------0------0-------------------------------------------------|
B---------------------------------------------------------------|
G---------------------------------------------------------------|
D-7-7----7-7----------------------------------------------------|
A-7-7----7-7----------------------------------------------------|
E-5-5----5-5----------------------------------------------------|

Solo (chords) play 3 times, 3rA time, play last chord twice as long
e--------------------------------------------------------------------|
B--------------------------------------------------------------------|
G-----------------------------------7-7-7-7-7-7-7-7------------------|
D-9-9-9-9-9-9-9-9--5-5-5-5-5-5-5-5--7-7-7-7-7-7-7-7--7-7-7-7-7-7-7-7-|
A-9-9-9-9-9-9-9-9--5-5-5-5-5-5-5-5--5-5-5-5-5-5-5-5--7-7-7-7-7-7-7-7-|
E-7-7-7-7-7-7-7-7--3-3-3-3-3-3-3-3-------------------5-5-5-5-5-5-5-5-|

Solo (lead)
e--------------------------------------------------------6-7-10----|
B------10-12-12-10-12-14-14-14>12----------------------7-----------|
G-11-11---------------------------11--11-10-9-7?-7-8-9-------------|
D------------------------------------------------------------------|
A------------------------------------------------------------------|
E------------------------------------------------------------------|

e-------------14-14-14-14>12---------------------------------------|
B-12p11h12-12----------------12>13>7-12>13>7-13>14>7-13>14>7-15-14-|
G------------------------------------------------------------------|
D------------------------------------------------------------------|
A------------------------------------------------------------------|
E------------------------------------------------------------------|

e------------------------------------------------------------------|
B----------14-15-14------------------------------------------------|
G-16-14-16----------16-14-15-(17p6- 8times)-14~~-------------------|
D------------------------------------------------------------------|
A------------------------------------------------------------------|
E------------------------------------------------------------------|

Bridge (play 4 times, it sounds like they cut and played it backwards)
e------------------------------------------------------------------|
B------------------------------------------------------------------|
G-------5----------------------------------------------------------|
D-7--3--5--5----it sounds closer if you strum upwards--------------|
A-7--3--3--5-------------------------------------------------------|
E-5--1-----3-------------------------------------------------------|

e------------------------------------------------------------------|
B------------------------------------------------------------------|
G-(9-  30times) -10-10?(9-  24 times)------------------------------|
D-(10-   ?    ) -10-10?(10-  ?      )------------------------------|
A------------------------------------------------------------------|
E------------------------------------------------------------------|

Chorus (first time = normal)

Chorus 2  (play this once)
e------0------0-------------------------------------------------|
B---------------------------------------------------------------|
G---------------------------------------------------------------|
D-7-7----7-7----------------------------------------------------|
A-7-7----7-7----------------------------------------------------|
E-5-5----5-5----------------------------------------------------|

Chorus 3 (play this once)
e------0------0------0-----0-------0------0---------------------|
B---------------------------------------------------------------|
G-----------------------------5-5----5-5------------------------|
D-7-7----7-7----3-3----3-3----5-5----5-5----5-5?-5-5?-5-5-5-5---|
A-7-7----7-7----3-3----3-3----3-3----3-3----5-5--5-5?-5-5-5-5---|
E-5-5----5-5----1-1----1-1------------------3-3?-3-3--3-3-3-3---|


End on
e---------------------------------------------------------------|
B---------------------------------------------------------------|
G---------------------------------------------------------------|
D-7-7----7-7----------------------------------------------------|
A-7-7----7-7----------------------------------------------------|
E-5-5----5-5----------------------------------------------------|

ok. it took me awhile to tab this... but i finally did it. this is two days of work rite 
so send your thx at still_standing555@hotmail.com
Comments