Gob - No Regrets Chords & Tabs

 

No Regrets Chords & Tabs

Gob Chords & Tabs

Version: 1 Type: Tab 0 ratings
1 star 2 stars 3 stars 4 stars 5 stars
comments

No Regrets Tab

Tabbed By: Dustin
Isaac: This is proof


I saw that no one has tabbed this song yet and I thought since it's a great song I might as well do it.

Tuning:Regular.
*=repeat
@=repeat to

Intro:
|----------------------------------------------------------|
|--2-2-2-3-2-0-2-2-2-3-2-0-2-2-2-3-2-0-2-2-2-3-2-0---------|
|--2-2-2-2-2---2-2-2-2-2---2-2-2-2-2---2-2-2-2-2-----------|
|----------------------------------------------------------|
|----------------------------------------------------------|
|----------------------------------------------------------|

Verse 1:
|----------------------------------------------------------|
|----------------------------------------------------------|
|----------------------------------------------------------|
|--7-7-2-22-22-222-222-2-22-22-222-222---------------------|
|--7-7-2-22-22-222-222-2-22-22-222-222---------------------|
|--5-5-0-00-00-000-000-0-00-00-000-000---------------------|
All the things that I've regreted, all the places I was..

|----------------------------------------------------------|
|----------------------------------------------------------|
|----------------------------------------------------------|
|--7-77-77-777-777-7-77-77-777-777-2-22-22-222-222---------|
|--7-77-77-777-777-7-77-77-777-777-2-22-22-222-222---------|
|--5-55-55-555-555-5-55-55-555-555-0-00-00-000-000---------|

|----------------------------------------------------------|
|----------------------------------------------------------|
|----------------------------------------------------------|
|--4-44-44-444-444-----------------------------------------|
|--4-44-44-444-444-----------------------------------------|
|--2-22-22-222-222-----------------------------------------|

Chorus: Guitar 1:
|------------------------------------*---------------------|
|------------------------------------*---------------------|
|--------7-7-7-----------------------*--9-9-7--------------|
|--7-7-7-7-7-7-4-4-4-2-2-2---7-77-77-*--9-9-7--------------|
|--7-7-7-5-5-5-4-4-4-2-2-2---7-77-77-*--7-7-5--------------|
|--5-5-5-------2-2-2-0-0-0---5-55-55-*---------------------|

Guitar 2:
|----------------------------------------------------------|
|----------------------------------------------------------|
|--2-22-22-2-22-22-2-22-22-4-44-44-2-22-22-2-22-22-2-22-22-|
|----------------------------------------------------------|
|----------------------------------------------------------|
|----------------------------------------------------------|
[ Tab from: http://www.guitartabs.cc/tabs/g/gob/no_regrets_tab.html ]
|---------------------------------------------------------*|
|---------------------------------------------------------*|
|-1-11-11-------------------------------------------------*|
|---------------------------------------------------------*|
|---------------------------------------------------------*|
|---------------------------------------------------------*|

Verse 2:
|----------------------------------------------------------|
|----------------------------------------------------------|
|----------------------------------------------------------|
|--7-77-77-777-777-7-77-77-777-777-2-22-22-222-222---------|
|--7-77-77-777-777-7-77-77-777-777-2-22-22-222-222---------|
|--5-55-55-555-555-5-55-55-555-555-0-00-00-000-000---------|

|----------------------------------------------------------|
|----------------------------------------------------------|
|----------------------------------------------------------|
|--2-22-22-222-222-----------------------------------------|
|--2-22-22-222-222-----------------------------------------|
|--0-00-00-000-000-----------------------------------------|

Solo:
|-----------------------------------------444422220--------|
|--2-22-22-3-2-0---2-22-22-5-3-22---0-----555533332--------|
|----------------2----------------2---2--------------------|
|---------------------------------------2------------------|
|----------------------------------------------------------|
|----------------------------------------------------------|

|----------------------------------------------------------|
|--2-22-22-3-2-0---2-22-22-5-3-22---0-------0-2-2320020----|
|----------------2----------------2---2-1-2------------1---|
|----------------------------------------------------------|
|----------------------------------------------------------|
|----------------------------------------------------------|

|--------------------------------------5-------------------|
|------------------------------------7---7-5---------------|
|--2/9-7-7-6-7-6-4-6-4-2/9-7-7-6-7-6---------7-6-7---------|
|----------------------------------------------------------|
|----------------------------------------------------------|
|----------------------------------------------------------|

|----------------------------------------------------------|
|----------------------------------------------------------|
|--6/9-7---------------------------------------------------|
|--------4-4-4-5-5-5-7-------------------------------------|
|--------4-4-4-5-5-5-7-------------------------------------|
|--------2-2-2-3-3-3-5-------------------------------------|

Order:Intro
      Verse 1
      Chorus
      Verse 2
      Chorus
      Solo
      ChorusX2
Comments