Gob - Ming Tran Chords & Tabs

 

Ming Tran Chords & Tabs

Gob Chords & Tabs

Version: 1 Type: Tab 0 ratings
1 star 2 stars 3 stars 4 stars 5 stars
comments

Ming Tran Tab

Gob - Ming tran
Tabbed by Headless_duck77

Standard tuning i think..........

Intro with i think flanger?:
e:------------------------------------------------------------------
B:------------------------------------------------------------------
G:-----5-------5-------5-------5-------5-------5-------5-------5----
D:---6---6---6---6---6---6---6---6---6---6---6---6---6---6---6---6--
A:-8-------8-------4-------4-------8-------8-------4----------------
E:---------------------------------------------------------4--------

e:------------------------------------------------------------------
B:------------------------------------------------------------------
G:-----5-------5-------5-------5-------5-------5-------5-6----------
D:---6---6---6---6---6---6---6---6---6---6---6---6---6---6----------
A:-8-------8-------4-------4-------8-------8-------4-----8----------
E:------------------------------------------------------------------

2nd half of intro/chorus:
e:---------------------------------------------
B:---------------------------------------------
G:---------------------------------------------
D:-6-6-6-2-2-2-2-2-6-6-6-2-2-2-2-4-4-4-4-4-4---
A:-6-6-6-2-2-2-2-2-6-6-6-2-2-2-2-4-4-4-4-4-4---
E:-4-4-4-0-0-0-0-0-4-4-4-0-0-0-0-2-2-2-2-2-2---

Verse 1:
Guitar 1:
e-----------------------------------------------------------------------------------
b-----------------------------------------------------------------------------------
g--6-6-6-6-6-6-6-6--9-9-9-9-9-9-9-9-9--------------------11-11-11-11-11-11-11-11-11-
d--6-6-6-6-6-6-6-6--9-9-9-9-9-9-9-9-9--9-9-9-9-9-9-9-9-9-11-11-11-11-11-11-11-11-11-
a--4-4-4-4-4-4-4-4--7-7-7-7-7-7-7-7-7--9-9-9-9-9-9-9-9-9-9--9--9--9--9--9--9--9--9--
E--------------------------------------7-7-7-7-7-7-7-7-7----------------------------

Guitar 2 comes in 5th time around:
e:-----------------2----------------------------2-----
B:----4------5----------0--------4-------5----------2-
G:----------------------------------------------------
D:----------------------------------------------------
A:----------------------------------------------------
E:----------------------------------------------------

Chorus:
e:---------------------------------------------
B:---------------------------------------------
G:---------------------------------------------
D:-6-6-6-2-2-2-2-2-6-6-6-2-2-2-2-4-4-4-4-4-4---
A:-6-6-6-2-2-2-2-2-6-6-6-2-2-2-2-4-4-4-4-4-4---
E:-4-4-4-0-0-0-0-0-4-4-4-0-0-0-0-2-2-2-2-2-2---
[ Tab from: http://www.guitartabs.cc/tabs/g/gob/ming_tran_tab.html ]
Verse 2:
e:----------------------------------------------------------------------
B:-4-4-4-4-4-4-4-4-4-4-4-4-4-4-4-4-4-4-4-4-4-4-4-4-4-2-2-2-2-2-2-2-2-2--
G:----------------------------------------------------------------------
D:----------------------------------------------------------------------
A:----------------------------------------------------------------------
E:----------------------------------------------------------------------

Chorus:
e:---------------------------------------------
B:---------------------------------------------
G:---------------------------------------------
D:-6-6-6-2-2-2-2-2-6-6-6-2-2-2-2-4-4-4-4-4-4---
A:-6-6-6-2-2-2-2-2-6-6-6-2-2-2-2-4-4-4-4-4-4---
E:-4-4-4-0-0-0-0-0-4-4-4-0-0-0-0-2-2-2-2-2-2---

Bridge:
Guitar 1:
e---------------------------------------------------------------------------------
b--6-6-6-7-6-6-6-7--------6-6-7-6-6-6-7-9--7-6-7---6-6-7-6-6-6-7-9---7-6-7-9------
g--6-6-6-6-6-6-6-6---x4---6-6-6-6-6-6-6-6--6-6-6---6-6-6-6-6-6-6-6---6-6-6-6------
d---------------------------------------------------------------------------------
a---------------------------------------------------------------------------------
E---------------------------------------------------------------------------------

Guitar 2 comes in 2nd time round:
e:-----------------------------------
B:-----------------------------------
G:-----------------------------------
D:-8-8-8-8-8-8-8-8--4-4-4-4-4-4-4-4--
A:-8-8-8-8-8-8-8-8--4-4-4-4-4-4-4-4--
E:-6-6-6-6-6-6-6-6--2-2-2-2-2-2-2-2--

Interlude:
Guitar 1 (all of these are harmonics):
e:--------5*--------------------------
B:---5*------5*----3*-----------------
G:------------------------------------
D:------------------------------------
A:------------------------------------
E:------------------------------------

Guitar 2 comes in 2nd time round:
e:-----------------2----------------------------2-----
B:----4------5----------0--------4-------5----------2-
G:----------------------------------------------------
D:----------------------------------------------------
A:----------------------------------------------------
E:----------------------------------------------------

Then there's the little riff the guitars follow each other 
just listen to figure out timing:

Guitar 1:
e:-----------------2----------------------------2-----
B:----4------5----------0--------4-------5----------2-
G:----------------------------------------------------
D:----------------------------------------------------
A:----------------------------------------------------
E:----------------------------------------------------

Guitar 2:
e:-----------------2----------------------------2-----
B:----4------5----------0--------4-------5----------2-
G:----------------------------------------------------
D:----------------------------------------------------
A:----------------------------------------------------
E:----------------------------------------------------

Chorus:
e:---------------------------------------------
B:---------------------------------------------
G:---------------------------------------------
D:-6-6-6-2-2-2-2-2-6-6-6-2-2-2-2-4-4-4-4-4-4---
A:-6-6-6-2-2-2-2-2-6-6-6-2-2-2-2-4-4-4-4-4-4---
E:-4-4-4-0-0-0-0-0-4-4-4-0-0-0-0-2-2-2-2-2-2---

That's all folks...............Questions or comments
headless_duck77@hotmail.com
Comments