Gob - Losing Face Chords & Tabs

 

Losing Face Chords & Tabs

Gob Chords & Tabs

Version: 1 Type: Bass Tab

Losing Face Bass Tab

intro
--------------------|
---------------1-1--|
----------------2-2-|
-2-2-2-0-0-0-0------| 2X

verse
--------------------|
---------------1-1--|
----------------2-2-|
-2-2-2-0-0-0-0------| 2X
[ Tab from: http://www.guitartabs.cc/tabs/g/gob/losing_face_btab.html ]
chrous
--------------------------------------------------------|
-------------------------------------------1-1-1-1-1-1--|
--------------------------------------------2-2-2-2-2-2-|
-2-2-2-0-0-0-0-2-2-2-0-0-0-0-2-2-2-0-0-0-0--------------|

before verse
-------|
-------|
-------|
-4-4-4-|

verse
--------------------|
---------------1-1--|
----------------2-2-|
-2-2-2-0-0-0-0------| 2X

chorus
------------------------|
---------------1-1-1----|
----------------2-2-2-2-|
-2-2-2-0-0-0-0----------|

----------|
----------|
-222-2-22-|
----------| 15X

---
---
-2-
---