Gob - Lemon-aid Chords & Tabs

 

Lemon-aid Chords & Tabs

Gob Chords & Tabs

Version: 1 Type: Bass Tab

Lemon-aid Bass Tab

intro 0:05
----------------------------|
----------------------------|
---------2------------------|
-2h0h2h0---2-2-2-0-0-000000-| 4X

verse
----------------------------|
----------------------------|
-2-2-2-2-4-4-4-4-0-0--------|
---------------------000000-| 3X

-------------------|
-------------------|
-22222222-22222222-|
-------------------|

----------------------------|
----------------------------|
-2-2-2-2-4-4-4-4-0-0--------|
---------------------000000-| 3X

-------------------|
-------------------|
-22222222-22222222-|
-------------------|

chorus
------------------------------|
-2-2-2-2----------------------|
---------2-2-2-2--------------|
-----------------2-2-00000000-| 2X

-----------------------------------------------|
-22222222----------1/2222-1/2222-1/2222-1/2222-|
----------22222222-----------------------------|
-----------------------------------------------|

verse
----------------------------|
----------------------------|
-2-2-2-2-4-4-4-4-0-0--------|
---------------------000000-| 3X

-------------------|
-------------------|
-22222222-22222222-|
-------------------|

----------------------------|
----------------------------|
-2-2-2-2-4-4-4-4-0-0--------|
---------------------000000-| 3X

-------------------|
-------------------|
-22222222-22222222-|
-------------------|

chorus
------------------------------|
-2-2-2-2----------------------|
---------2-2-2-2--------------|
-----------------2-2-00000000-| 2X
[ Tab from: http://www.guitartabs.cc/tabs/g/gob/lemon_aid_btab.html ]
-----------------------------------------------|
-22222222----------1/2222-1/2222-1/2222-1/2222-|
----------22222222-----------------------------|
-----------------------------------------------|

------------------------------|
-2-2-2-2----------------------|
---------2-2-2-2--------------|
-----------------2-2-00000000-| 2X

-----------------------------------------------|
-22222222----------1/2222-1/2222-1/2222-1/2222-|
----------22222222-----------------------------|
-----------------------------------------------|

bridge
----------------------------|
----------------------------|
---------2------------------|
-2h0h2h0---2-2-2-0-0-000000-| 4X

-------------------------------------|
-------------------------------------|
----------22222222----------22222222-|
-00000000----------44444444----------| 4X

chorus
------------------------------|
-2-2-2-2----------------------|
---------2-2-2-2--------------|
-----------------2-2-00000000-| 2X

-----------------------------------------------|
-22222222----------1/2222-1/2222-1/2222-1/2222-|
----------22222222-----------------------------|
-----------------------------------------------|

------------------------------|
-2-2-2-2----------------------|
---------2-2-2-2--------------|
-----------------2-2-00000000-| 2X

-----------------------------------------------|
-22222222----------1/2222-1/2222-1/2222-1/2222-|
----------22222222-----------------------------|
-----------------------------------------------|