Gob - Ive Been Up These Steps Chords & Tabs

 

Ive Been Up These Steps Chords & Tabs

Gob Chords & Tabs

Version: 1 Type: Bass Tab 0 ratings
1 star 2 stars 3 stars 4 stars 5 stars
comments

Ive Been Up These Steps Bass Tab

   
Gob - I've Been Up These Steps
Tabbed By: Ian M.

Tuning: Half Step Down (Eb Ab Db Gb)

Submitted By: Stand Alone (projectwyze13@hotmail.com)

No bass for the intro of the song. The bass comes in at 0:37.
If you've got any questions or comments, email me at ian_miron87@hotmail.com.

0:37 Bass comes in (Bass Intro)
Gb|-----------------------------------------------------------------------||
Db|--------------------------------------------------------------------|| x2
Ab|-------------5555------------7--7-----7--7-----------------------------||
Eb|-7777--2222--------5555--000---0--000---0------------------------------||

Verse Part 1 (0:48)
Gb|-----------------------------------------------------------------------||
Db|--------------------------------------------------------------------|| x2
Ab|-------------5555------------------------------------------------------||
Eb|-7777--2222--------5555--00-000-000-0-0000-----------------------------||

Verse Part 2 (0:59)
Gb|-----------------------------------------------------------------------||
Db|--------------------------------------------------------------------|| x4
Ab|------------5--0-000---------------------------------------------------||
Eb|-3-3-03333-------------------------------------------------------------||
[ Tab from: http://www.guitartabs.cc/tabs/g/gob/ive_been_up_these_steps_btab.html ]
Chorus (1:10)
Gb|-----------------------------------------------------------------------||
Db|--------------------------------------------------------------------|| x2
Ab|-----------5555---------77-7---77-7------------5555---------77---------||
Eb|-7777-2222-----5555--00--0--00--0---7777--2222----5555--00--07-0000000-||

Verse Part 1 (1:22) x4
Verse Part 2 (1:44) x4

Bridge (1:55)                         Play 1st Time     Play 2nd Time
Gb|-------------------------------------|----------|-|--------------------||
Db|-------------------------------------|----------|-|------------------||x2
Ab|---------555---------777---------555-|---7--7-7-|-|--------------------||
Eb|-333-5-7-----000-5-7-----333-5-7-----|-00-00-0--|-|---00000000---------||

Bass Doesnt Play (2:08)

Verse Part 2 (2:19) x4

Outro Part 1 (2:31)           4th Time Play This
Gb|--------------------|----|--------------------------------------------||
Db|----------------|-x3-|------------------------------------------------|| 
Ab|--------------------|----|--------------------------------------------||
Eb|-33333333--00000000-|----|-33333333--0--------------------------------||

Outro Part 2 (2:42)
Gb|-----------------------------------------------------------------------||
Db|-----------------------------------------------------------------------||
Ab|--------------5555----------77-----------------------------------------||
Eb|--7777--2222--------5555--00-------------------------------------------||

And that's it. Enjoy!
Comments