Gob - I Hear You Calling Chords & Tabs

 

I Hear You Calling Chords & Tabs

Gob Chords & Tabs

Version: 5 Type: Tab 0 ratings
1 star 2 stars 3 stars 4 stars 5 stars
comments

I Hear You Calling Tab

Song: I Hear You Calling
Artist: Gob
Tuning: Standard
Email: ayekik_eiyl@hotmail.com

'Tis a pretty simple piece, and great to play. ^^ Have fun!

[Intro] x1
   EEEEQ  EE | Q  Q EEEE | EEEEEEEH.|      EEQ | EEEEEEH. 
E|-----------|-----------|----------|----------|---------|
B|-----------|-----------|----------|----------|---------|
G|-----------|-----------|----------|----------|---------|
D|---4-4--4--|-6--4------|----------|----------|---------|
A|--6-6----6-|------6646-|-422-22-6-|~~~~~-464-|~22-22-6-|
E|-7---------|-----------|----4--4--|----------|---4--4--|
       EEQ | EEEEEEQ | Q Q Q
E|---------|---------|-------|
B|---------|---------|-------|
G|---------|---------|-------|
D|---------|---------|-------|
A|~~~~~464-|~22-22-6-|~4~4~2-|
E|---------|---4--4--|-------|
[ Tab from: http://www.guitartabs.cc/tabs/g/gob/i_hear_you_calling_tab_ver_5.html ]
[Verse] x2
   EEEEEEEE   Q Q EEEE   EEEEEEEE   EEEEEEEE
E|----------|----------|----------|----------|
B|----------|----------|----------|----------|
G|-44444444-|-6--------|----------|----------|
D|-44444444-|-6-6-6666-|-22222222-|-66666666-|
A|-22222222-|-4-6-6666-|-22222222-|-66666666-|
E|----------|---4-4444-|-00000000-|-44444444-|
   EEEEEEEE   EEEEEEEE   EEEEEEEE   EEEEEEEE
E|----------|----------|----------|----------|
B|----------|----------|----------|----------|
G|----------|----------|----------|----------|
D|-22222222-|-66666666-|-22222222-|-44444444-|
A|-22222222-|-66666666-|-22222222-|-44444444-|
E|-00000000-|-44444444-|-00000000-|-22222222-|

[Chorus] x2
   EEEEEEEE   EEEEEEEE   EEEEEEEE   EEEEEEEE
E|----------|----------|----------|----------|
B|----------|----------|----------|----------|
G|----------|----------|-66666666-|----------|
D|-22222222-|-44444444-|-66666666-|-66666666-|
A|-22222222-|-44444444-|-44444444-|-66666666-|
E|-00000000-|-22222222-|----------|-44444444-|
 PM--------   --------  --------  ----**** (Do not palm mute second time at ****) 

[Solo] x1 (Same as [Intro])
   EEEEQ  EE | Q  Q EEEE | EEEEEEEH.|      EEQ | EEEEEEH. 
E|-----------|-----------|----------|----------|---------|
B|-----------|-----------|----------|----------|---------|
G|-----------|-----------|----------|----------|---------|
D|---4-4--4--|-6--4------|----------|----------|---------|
A|--6-6----6-|------6646-|-422-22-6-|~~~~~-464-|~22-22-6-|
E|-7---------|-----------|----4--4--|----------|---4--4--|
       EEQ | EEEEEEQ | Q Q Q
E|---------|---------|-------|
B|---------|---------|-------|
G|---------|---------|-------|
D|---------|---------|-------|
A|~~~~~464-|~22-22-6-|~4~4~2-|
E|---------|---4--4--|-------|


ORDER:
Intro x1
Verse x2
Chorus x2 PM
Verse x2
Chorus x2 PM
Solo x2
Chorus x10

PM  Palm Mute
-   Palm Mute
*   Palm Mute Second Time Only

E   Eighth Note
Q   Quarter Note
H   Half Note
.   Dotted Note
Comments