Gob - I Hear You Calling Chords & Tabs

 

I Hear You Calling Chords & Tabs

Gob Chords & Tabs

Version: 4 Type: Tab 0 ratings
1 star 2 stars 3 stars 4 stars 5 stars
comments

I Hear You Calling Tab

standard tuning but im not really putting the time into the solo or intro,
you can figure that out yourself its actualy not hard at all, if you know the song.

                    intro and solo
|--------------------------------------------------
|--4-7-4-7-7-4-7/9-7-7-4----4-0-0-0-0-2-0-2h4------
|--------------------------------------------------
|--------------------------------------------------
|--------------------------------------------------
|--------------------------------------------------

|---------------------------------------------------
|-2-2-2-0-0-0-0-2-0-2h4-2-2-2-0-0-0-0-2-0-2h4-2-2-0-
|---------------------------------------------------
|---------------------------------------------------
|---------------------------------------------------
|---------------------------------------------------

                   verse 2X
|---------------------------------------------------
|---------------------------------------------------
|--4----4--4--4--4--4--4--6----6--6--6--6--6--6------
|--4----4--4--4--4--4--4--6----6--6--6--6--6--6-----
|--2----2--2--2--2--2--2--4----4--4--4--4--4--4-----
|---------------------------------------------------


|---------------------------------------------------
|---------------------------------------------------
|---------------------------------------------------   2
|--2----2----2--2--2--6----6----6--6--6--6----------   X
|--2----2----2--2--2--6----6----6--6--6--6----------
|--0----0----0--0--0--4----4----4--4--4--4----------

[ Tab from: http://www.guitartabs.cc/tabs/g/gob/i_hear_you_calling_tab_ver_4.html ]
|---------------------------------------------------
|---------------------------------------------------
|---------------------------------------------------
|--2----2----2--2--2--4----4----4--4--4--4----------
|--2----2----2--2--2--4----4----4--4--4--4----------
|--0----0----0--0--0--2----2----2--2--2--2----------

                      chorus
|---------------------------------------------------
|---------------------------------------------------
|--4----4--4--4--4--4--4--6----6--6--6--6--6--6-----
|--4----4--4--4--4--4--4--6----6--6--6--6--6--6-----
|--2----2--2--2--2--2--2--4----4--4--4--4--4--4-----
|---------------------------------------------------
pm .    .  .  .  .  .  .  .    .  .  .  .  .  .

|---------------------------------------------------
|---------------------------------------------------
|---------------------------------------------------
|--2----2----2--2--2--6----6----6--6--6--6----------
|--2----2----2--2--2--6----6----6--6--6--6----------
|--0----0----0--0--0--4----4----4--4--4--4----------
pm .    .    .  .  .  .    .    .  .  .  .


|---------------------------------------------------
|---------------------------------------------------
|---------------------------------------------------
|--4----4----4--4--4--4--6----6----6--6--6--6-------
|--4----4----4--4--4--4--6----6----6--6--6--6-------
|--2----2----2--2--2--2--4----4----4--4--4--4-------
pm .    .    .  .  .  .  .    .    .  .  .  .


|---------------------------------------------------
|---------------------------------------------------
|--------------------------6--6--6----4--4--4-------
|--4----4----4--4--4--4----6--6--6----4--4--4-------
|--4----4----4--4--4--4----4--4--4----2--2--2-------
|--2----2----2--2--2--2-----------------------------
pm .    .    .  .  .  .
well thats all there is really. if you have any issues just e-mail me at meadowskid@hotmail.com
Comments