Gob - I Hear You Calling Chords & Tabs

 

I Hear You Calling Chords & Tabs

Gob Chords & Tabs

Version: 3 Type: Tab 0 ratings
1 star 2 stars 3 stars 4 stars 5 stars
comments

I Hear You Calling Tab

   
I Hear You Calling
GOB

Intro
E|-----------------------------------------|
B|-----------------------------------------|
G|-----------------------------------------|
D|-----------6-----------------------------|
A|-6-9-6-9-9---9--6-6-6-6---2-2---2-2-4/6--|
E|------------------------4-----4----------|

E|----------------------------------------------------|
B|----------------------------------------------------|
G|----------------------------------------------------|
D|----------------------------------------------------|
A|-4-6-4-2-2---2-2---4/6-4-6-4-2-2---2-2---4/6-4-4-2--|
E|-----------4-----4---------------4-----4------------|
[ Tab from: http://www.guitartabs.cc/tabs/g/gob/i_hear_you_calling_tab_ver_3.html ]
Verse
E|--------------------------------------------------------|
B|--------------------------------------------------------|
G|--------------------------------------------------------|
D|-44444444-6---------------------------------------------|
A|-22222222-4-66666666-22222222-66666666-2222222-44444444-|
E|------------44444444-00000000-44444444-0000000-22222222-|  x2

Chorus
E|---------------------------------------------|
B|---------------------------------------------|
G|---------------------------------------------|
D|-22222222-44444444-66666666-6666666666666666-|
A|-22222222-44444444-44444444-6666666666666666-|
E|-00000000-22222222----------4444444444444444-|

E|----------------------------------------------|
B|----------------------------------------------|
G|----------------------------------------------|
D|-22222222-44444444-66666666-66666666/44444444-|
A|-22222222-44444444-44444444-66666666/44444444-|
E|-00000000-22222222----------44444444/22222222-|

The solo is the same as the intro.
Comments