Gob - I Hear You Calling Chords & Tabs

 

I Hear You Calling Chords & Tabs

Gob Chords & Tabs

Version: 1 Type: Tab 0 ratings
1 star 2 stars 3 stars 4 stars 5 stars
comments

I Hear You Calling Tab

   
         Gob - I Hear Yew Calling
         Guitar and Bass Lines


P.M.= malm mute
/=slide up
\=slide down
h=hammer
*=


|---------------------------------------------------------|
|---------------------------------------------------------|
|---------------------------------------------------------|
|----4---4-4---4/6--4-------------------------------------|
|-/6---6-----6--------6-6-6-6\4-22---22---4/6--4-6--4\22--|
|----------------------------------4----4----------------4|

|---------------------------------------|
|---------------------------------------|
|---------------------------------------|
|---------------------------------------|
|-22---4/6--4-6--4\22---22---4/6--44--2-|
|----4----------------4----4------------|

|----------------------------------------------------------|
|----------------------------------------------------------|
|----------------------------------------------------------|
|-444444--6------------------------------------------------|
|-222222--4--666666--222222--666666--222222--666666--222222|
|------------444444--000000--444444--000000--444444--000000|
Bass for ^
|----------------------------------------------------------|
|----------------------------------------------------------|
|-444444--6------------------------------------------------|
|------------666666--000000--666666--000000--666666--000000|

|--------|-------------------------------------------------|
|--------|-------------------------------------------------|
|--------|-------------------------------------------------|
|--------|-444444-6----------------------------------------|
|-444444-|-222222-4--666666--222222--666666--222222--666666|
|-222222-|-----------444444--000000--444444--000000--444444|
Bass for ^
|--------|-------------------------------------------------|
|--------|-------------------------------------------------|
|--------|-444444-6----------------------------------------|
|-222222-|-----------666666--000000--666666--000000--666666|

|----------------|
|----------------|
|----------------|
|----------------|
|-222222--444444-|
|-000000--222222-|
Bass for ^
|----------------|
|----------------|
|----------------|
|-000000--444444-|

P.M.______________________________
|---------------------------------|
|---------------------------------|
|---------------------------------|
|-----------------666666----------|
|-222222--444444--444444--666666--|
|-000000--222222----------444444--|
Bass for^
|---------------------------------|
|---------------------------------|
|-----------------444444----------|
|-000000--222222----------444444--|

P.M._________________________
|------------------------------------|
|------------------------------------|
|------------------------------------|
|-----------------666666-------------|
|-222222--444444--444444--6666h6h6h--|
|-000000--222222----------4444h4h4h--|
Bass for ^
|------------------------------------|
|------------------------------------|
|-----------------444444-------------|
|-000000--222222----------444h4h4h4--|

|----------------------------------------------------------|
|----------------------------------------------------------|
|----------------------------------------------------------|
|-444444--6------------------------------------------------|
|-222222--4--666666--222222--666666--222222--666666--222222|
|------------444444--000000--444444--000000--444444--000000|
Bass for^
|----------------------------------------------------------|
|----------------------------------------------------------|
|-444444--6------------------------------------------------|
|------------666666--000000--666666--000000--666666--000000|



|--------|-------------------------------------------------|
|--------|-------------------------------------------------|
|--------|-------------------------------------------------|
|--------|-444444-6----------------------------------------|
|-444444-|-222222-4--666666--222222--666666--222222--666666|
|-222222-|-----------444444--000000--444444--000000--444444|
Bass for ^
|--------|-------------------------------------------------|
|--------|-------------------------------------------------|
|--------|-444444-6----------------------------------------|
|-222222-|-----------666666--000000--666666--000000--666666|

|----------------|
|----------------|
|----------------|
|----------------|
|-222222--444444-|
|-000000--222222-|
Bass for ^
|----------------|
|----------------|
|----------------|
|-000000--222222-|
[ Tab from: http://www.guitartabs.cc/tabs/g/gob/i_hear_you_calling_tab.html ]
P.M.______________________________
|---------------------------------|
|---------------------------------|
|---------------------------------|
|-----------------666666----------|
|-222222--444444--444444--666666--|
|-000000--222222----------444444--|
Bass for ^
|---------------------------------|
|---------------------------------|
|-----------------444444----------|
|-000000--222222----------444444--|

P.M._________________________
|------------------------------------|
|------------------------------------|
|------------------------------------|
|-----------------666666-------------|
|-222222--444444--444444--6666h6h6h--|
|-000000--222222----------4444h4h4h--|
Bass for ^
|------------------------------------|
|------------------------------------|
|-----------------444444-------------|
|-000000--222222----------444h4h4h4--|

SOLO

|---------------------------------------------------------|
|---------------------------------------------------------|
|---------------------------------------------------------|
|----4---4-4---4/6--4-------------------------------------|
|-/6---6-----6--------6-6-6-6\4-22---22---4/6--4-6--4\22--|
|----------------------------------4----4----------------4|

|---------------------------------------|
|---------------------------------------|
|---------------------------------------|
|---------------------------------------|
|-22---4/6--4-6--4\22---22---4/6--44--2-|
|----4----------------4----4------------|

|---------------------------------------------------------|
|---------------------------------------------------------|
|---------------------------------------------------------|
|----4---4-4---4/6--4-------------------------------------|
|-/6---6-----6--------6-6-6-6\4-22---22---4/6--4-6--4\22--|
|----------------------------------4----4----------------4|

|---------------------------------------|
|---------------------------------------|
|---------------------------------------|
|---------------------------------------|
|-22---4/6--4-6--4\22---22---4/6--44--2-|
|----4----------------4----4------------|

Bass after SOLO

|---------------------------------|
|---------------------------------|
|-----------------444444----------|
|-000000--222222----------444444--|

|---------------------------------|
|---------------------------------|
|-----------------444444----------|
|-000000--222222----------444444--|

P.M.______________________________
|---------------------------------|
|---------------------------------|
|---------------------------------|
|-----------------666666----------|
|-222222--444444--444444--666666--|
|-000000--222222----------444444--|
Bass for^
|---------------------------------|
|---------------------------------|
|-----------------444444----------|
|-000000--222222----------444444--|

P.M.______________________________
|---------------------------------|
|---------------------------------|
|---------------------------------|
|-----------------666666----------|
|-222222--444444--444444--666666--|
|-000000--222222----------444444--|
Bass for ^
|---------------------------------|
|---------------------------------|
|-----------------444444----------|
|-000000--222222----------444444--|

|---------------------------------|
|---------------------------------|
|---------------------------------|
|-----------------666666----------|
|-222222--444444--444444--666666--|
|-000000--222222----------444444--|
Bass for ^
|---------------------------------|
|---------------------------------|
|-----------------444444----------|
|-000000--222222----------444444--|

|---------------------------------|
|---------------------------------|
|---------------------------------|
|-----------------666666----------|
|-222222--444444--444444--666666--|
|-000000--222222----------444444--|
Bass for ^
|---------------------------------|
|---------------------------------|
|-----------------444444----------|
|-000000--222222----------444444--|

|---------------------------------|
|---------------------------------|
|---------------------------------|
|-----------------666666----------|
|-222222--444444--444444--666666--|
|-000000--222222----------444444--|
Bass for ^
|---------------------------------|
|---------------------------------|
|-----------------444444----------|
|-000000--222222----------444444--|

|---------------------------------|
|---------------------------------|
|---------------------------------|
|-----------------666666----------|
|-222222--444444--444444--666666--|
|-000000--222222----------444444--|
Fadd out...........................

|---------------------------------|
|---------------------------------|
|---------------------------------|
|-----------------666666----------|
|-222222--444444--444444--666666--|
|-000000--222222----------444444--|
...................................

|---------------------------------|
|---------------------------------|
|---------------------------------|
|-----------------666666----------|
|-222222--444444--444444--666666--|
|-000000--222222----------444444--|
...................................


Thats how i think it is tabbed if yew have any questions or corrections or would like more 
tabs and or bass tabs feel free to email me at crazy_surfer_13@hotmail.com
Comments