Gob - Hooray Chords & Tabs

 

Hooray Chords & Tabs

Gob Chords & Tabs

Version: 1 Type: Bass Tab 0 ratings
1 star 2 stars 3 stars 4 stars 5 stars
comments

Hooray Bass Tab

hooray! (he's gay) - gob
tabbed by: ryan b

this is an easy song, and seems to be based
upon the life of Tyler Marghetis

Riff A: (3 times)
A--------5-7-7--------5-------------5-7-7--9999--7777--
E--7777---------7777-----5-5--7777---------------------

now, there are two ways you can play Riff B (3 times); 

like i do			
A--xxxxxxxx--5-5-5-5-5-5--			
E-------------------------
[ Tab from: http://www.guitartabs.cc/tabs/g/gob/hooray_btab.html ]
or, like my friend does (whatever you feel is best)
A------------5-5-5-5-5-5--
E--77777777---------------


Riff C: (once)
A--xxxxxxxx--5-5-5-5-5-5-5-5-5-5-5-5--
E-------------------------------------

Riff A: (twice)

Riff D: (once)
A--9999--7777--
E--------------

Riff A: (twice)
Riff B: (3 times)
Riff C: (once)
Riff A: (twice)
Riff D: (once)

End after Riff D on 7th fret E string (B)



Comments