Gob - Give Up The Grudge Chords & Tabs

 

Give Up The Grudge Chords & Tabs

Gob Chords & Tabs

Version: 3 Type: Tab 0 ratings
1 star 2 stars 3 stars 4 stars 5 stars
comments

Give Up The Grudge Tab

   
tabber:alex a.
age:13
e-mail:punkrock666@rock.com


i just saw the stellar n00b who tried to tab this!
and holy fuck was he off :(

tuning (Eb-Ab-Db-Gb-C-Eb)

INTRO
E---------------------------------------------------------
B---------------------------------------------------------
G--999------:)----------999-------------------------------
D--999-777-666--444-2-4-999-111111-131313-141414-13-11----
A--777-555-444--222-0-2-777-9-9-9--111111-121212-11--9----
E--000------------------000-------------------------------
 ^^^^^^^^^^^^^^^^^^^^^^
guitar two plays this part 2 times
FILL (studio effect i think its a assraping chorus)
E----------------
B----------------
G---99-9--99-9---
D----------------
A--7--7--7--7----
E----------------

VERSE(BASS)thats what an octaves for'_'<--lol
E------------------------------------------------------
B------------------------------------------------------
G------------------------------------------------------
D------------------------------------------------------
A------------------------------------------------------
E---000000000040-000000000050-00000000004-000000000050-

PRECHORUS
all palm muted
A-Ex3
F#-Ab-A (pick slide [E]A down to 17{slowly})


CHORUS
gtr.1
Eh(with open 6)-A-Eh-A-Eh-A-C#-B
gtr.2
Eh----------Ah-Eh-Ah-Eh-Ah-Abh-F#h  
both pm.
Eh-----------             


VERSE & FILL

PRECHORUS

CHORUS
[ Tab from: http://www.guitartabs.cc/tabs/g/gob/give_up_the_grudge_tab_ver_3.html ]
SOLO
E--------------------------2nd with octave up-
B---5555/7/9999/10\9\7\5---x2-----------------
G---------------------------------------------
D---------------------------------------------
A---------------------------------------------
E---------------------------------------------

E-----121212/14/151515-15\14\12\14\12--7-12-12-11-9-7-4h5-0
B----------------------------------------------------------
G----------------------------------------------------------
D----------------------------------------------------------
A----------------------------------------------------------
E----------------------------------------------------------
              hella fast_______________________________________!
E-------12------12------12h15p12-----12--------------------------
B--15bu----15bu----15bu----------15----h12h15p12-----------------
G------------------------------------------------14h15p14p12-----
D------------------------------------------------------------14--
A----------------------------------------------------------------
E----------------------------------------------------------------

CHORUS X1.5 pmed
AND Eh-A-B___

CHORUS OUT (variations:sliding in and to chords sliding out takes to much time)

and just incase ur wondering how is this played, distortion or clean?
I myself have a question ARE U FUCKING HIGH?

ITS GOB FOR CHIRSSAKES

and yes Theo at least your not alone

umm yeah e-mail me marrige proposals,hate mail,male hating groups,
death threats(so i can sue u),other tabs,forwards its all cool
im out l8er all
Comments