Gob - Fuck Them Chords & Tabs

 

Fuck Them Chords & Tabs

Gob Chords & Tabs

Version: 1 Type: Tab 0 ratings
1 star 2 stars 3 stars 4 stars 5 stars
comments

Fuck Them Tab

Fuck Them - Gob

Intro:
e|--------------------------------------------------------------------|
B|--------------------------------------------------------------------|
G|-----------9-9--5---------------------------------------------------|
D|-----------9-9--5---------------------------------------------------|
A|-2---------7-7--3---------------------------------------------------|
E|-0-muted------------------------------------------------------------|

Verse:
e|--------------------------------------------------------------------|
B|--------------------------------------------------------------------|
G|----5-----7---------------------------------------------------------|
D|----5--5--7---------------------------------------------------------|
A|-2--3--5--5---------------------------------------------------------|
E|-0-----3-----do-4-times---------------------------------------------|
[ Tab from: http://www.guitartabs.cc/tabs/g/gob/fuck_them_tab.html ]
Chorus:
e|--------------------------------------------------------------------|
B|--------------------------------------------------------------------|
G|----5-----4--5----5-------------------------------------------------|
D|-5--5--5--4--5-7--5--7----------------------------------------------|
A|-5--3--5--2--3-7--3--7----------------------------------------------|
E|-3-----3-------5-----5----------------------------------------------|

Bridge:
e|--------------------------------------------------------------------|
B|--------------------------------------------------------------------|
G|---4-bend---------------------------4-bend--------------------------|
D|-5-----------------------5-5-4---5----------------------------------|
A|-5---------------------2-3-3-2---5----------------------------------|
E|-3---------do-4-times--0---------3----------------------------------|

Bridge Continued:
e|--------------------------------------------------------------------|
B|--------------------------------------------------------------------|
G|---5-5-4-7-5-4---4-5-5-4-7-9-11-------------------------------------|
D|---5-5-4-7-5-4-2-4-5-5-4-7-9-11-------------------------------------|
A|-2-3-3-2-5-3-2-0-2-3-3-2-5-7-9--------------------------------------|
E|-0------------------------------------------------------------------|


Ending:
e|--------------------------------------------------------------------|
B|--------------------------------------------------------------------|
G|-7---5--7---5----7---5--7---5----------------4-bend-----------------|
D|-7-5-5--7-5-5-7--7-5-5--7-5-5-7-----------5---------------------5---|
A|-5-5-3--5-5-3-7--5-5-3--5-5-3-7-----------5---------------------5---|
E|---3------3---5----3------3---5-----------3--do-3-times---------3---|

Comments