Gob - Fido Dildo Chords & Tabs

 

Fido Dildo Chords & Tabs

Gob Chords & Tabs

Version: 2 Type: Bass Tab 0 ratings
1 star 2 stars 3 stars 4 stars 5 stars
comments

Fido Dildo Bass Tab

Fido Dildo - gob
tabbed by: ryan b

Riff A: (twice)
A--7777--------7777------------
E--------7777-----------7-5-4--

Riff B: (3 times)
A--7777-----------
E----------7777---

Riff C: (once)
A--7777-----------7777------------------
E----------7777---------7777--55555555--

Riff D: (once)
A----------------------------------------
E--0-0--4/5---0-0--4/5---0-0-4/5/7-7777--
[ Tab from: http://www.guitartabs.cc/tabs/g/gob/fido_dildo_btab_ver_2.html ]
Riff A: (twice)
Riff B: (3 times)
Riff C: (once)
Riff D: (once)

Riff E: (once)
A--4444----------4444------------4444-----------22222222--
E----------4444------------4444-----------3333------------

Riff F: (once)
A--4444----------4444------------4444-----------2222-2--
E----------4444------------4444-----------3333----------

Riff G: (once)
A---------------------------------------
E--0-0--4/5---0-0--4/5---0-0-4/5--4--0--

Comments