Gob - Everyone Pushed Down Chords & Tabs

 

Everyone Pushed Down Chords & Tabs

Gob Chords & Tabs

Version: 1 Type: Tab 0 ratings
1 star 2 stars 3 stars 4 stars 5 stars
comments

Everyone Pushed Down Tab

FIRST TAB ive EVER MADE!!!!
I tabbed this at a different place, so all you gotta do is copy and
paste it into Microsoft Word or something and youll be all set!!

This is the song. i tabbed it out becase no one else has it!!!  enjoy, fuckers!!
E------------------------------------------------------------------------------------------------
B------------------------------------------------------------------------------------------------
G------------------------------------------------------------------------------------------------
D-6-6-6-6---8--8--8--8--8--8---6-6-----4-4-4-4----6-6---8--8--8--8--8--8---6-6---4-4-4-4---------
A-4-4-4-4---6--6--6--6--6--6---4-4-----4-4-4-4----4-4---6--6--6--6--6--6---4-4---4-4-4-4---------
D--------------------------------------------4-4-4-4--------------------------------------4-4-4-4


E-----------------------------------------------------------------------------------------------------
B-----------------------------------------------------------------------------------------------------
G-----------------------------------------------------------------------------------------------------
D---6-6-6-6---8--8--8--8--8--8---6-6-----4-4-4-4----6-6---8--8--8--8--8--8---6-6---4-4-4-4------------
A---4-4-4-4---6--6--6--6--6--6---4-4-----4-4-4-4----4-4---6--6--6--6--6--6---4-4---4-4-4-4------------
D----------------------------------------------4-4-4-4----------------------------------------4-4-4-4-
 You gotta burn………..    that   building  down…      I would love to see that world come crashing down

[ Tab from: http://www.guitartabs.cc/tabs/g/gob/everyone_pushed_down_tab.html ]
E------------------------------------------------------------------------------------
B---------------------------------------------------------------------------7--6-----
G-----------------------------------------------------------------6--8--6-------8--6-
D-4-4----6-6-6-6-6-6-6-6-6-6-6-6-6-6--4---------6-6----------------------------------
A-2-2----4-4-4-4-4-4-4-4-4-4-4-4-4-4--2---4-----4-4----------------------------------
D--------------------------------------------------4---------------------------------
                               And all your actions affect all     their   lives

E---------------------------------------------------------------------
B---------------------------------------------------------------------
G---------------------------------------------------------------------
D----6-6-6-6-6-6-6-6-6-6-6-6-6-6--4---------6-6-----------------------
A----4-4-4-4-4-4-4-4-4-4-4-4-4-4--2---4-----4-4-----------------------
D---------------------------------------------4-----------------------
                      If youd pay attention to it…   just one    time

E--------------------------------------------------------------------
B--------------------------------------------------------------------
G--------------------------------------------------------------------
D-------------------------------------9-9-9-9-9----------------------
A--6-6-6-6-6-6-6-6-6-6-6-6-6----7-7-7-7------9-9-9-9-----------------
D--6-6-6-6-6-6-6-6-6-6-6-6-6--------------------9-9-9-9--------------
                When your picking up your mind, do you contemplate
                    Do you understand in your heart and your soul say
(changes rhythm) buh buh buh buh………..
                    
       
E-----------------------------------------------------------------------------------------------------
B-----------------------------------------------------------------------------------------------------
G-----------------------------------------------------------------------------------------------------
D---6-6-6-6---8--8--8--8--8--8---6-6-----4-4-4-4----6-6---8--8--8--8--8--8---6-6---4-4-4-4------------
A---4-4-4-4---6--6--6--6--6--6---4-4-----4-4-4-4----4-4---6--6--6--6--6--6---4-4---4-4-4-4------------
D----------------------------------------------4-4-4-4----------------------------------------4-4-4-4-
You gotta burn………..    that   building  down…      I would love to see that world come crashing down


Tabbed By:  wickbone73
Comments