Gob - Cold Feet Chords & Tabs

 

Cold Feet Chords & Tabs

Gob Chords & Tabs

Version: 1 Type: Tab 0 ratings
1 star 2 stars 3 stars 4 stars 5 stars
comments

Cold Feet Tab

   
Hey ppl, this is another of my tabs, my Guitar Teacher tabbed it for me, He also tabbed
Can't Wake Up, which is on this site.
My teacher said you could tune the guitar as:
D|-|
G|-|
C|-|
F|-|
\|-|
\|-|
But this version is in normal tuning, It has alot of sharps & stuff

Chords used in Cold Feet:

  C#   F#  G#  Bb  F   D#  A#  C   G
E|---|---|---|---|---|---|---|---|---|  
B|---|---|---|---|---|---|---|---|---|
G|---|---|---|---|---|---|---|---|---|
D|-6-|---|---|---|---|-8-|---|-5-|---|
A|-4-|-4-|-6-|-8-|-3-|-6-|-8-|-3-|-5-|
E|---|-2-|-4-|-6-|-1-|---|-6-|---|-3-|

Rhythm:

Rhythm 1
Example in C#

E|-------------------------|
B|-------------------------|
G|-------------------------|
D|-6-6-6-6-6-6-6-6-6-6-6-6-|
A|-4-4-------4-4-------4-4-|
E|-------------------------|

Rhythm 2
Example in C#

E|-------------------|
B|-------------------|
G|-------------------|
D|-6-6----6-6-6--666-|
A|-4-4----4-4-4--444-|
E|-------------------|

Rhythm 3
Example in C#
Chords go into Octaves

E|-----------------|
B|-----------------|
G|-6-6-6-6-6-6-6-6-|
D|-----------------|
A|-4-4-4-4-4-4-4-4-|
E|-----------------|

Riff 1:

Bb Bb Bb F F F F# F# F# G#

Intro:
(Rhythm 1)
C#

Verse 1:
(Rhythm 1)

C#              F#                G#               Riff 1
I followed....  I'm searching.... I never knew.... Until you were...

C#                F#            G#                 Riff 1
I never get up... & only go.... There's so much... I'm gonna....

Chorus:

   F#   C#       G#      Bb  G# 
My love...  Come to me.........

     F#      C#      G#      Bb G#
Come around..... I'm lonely.......

Verse 2:
[ Tab from: http://www.guitartabs.cc/tabs/g/gob/cold_feet_tab.html ]
First part (starting with "Have socks..") of Verse 2 the same, just in Rhythm 2 & Riff 1
Second part (starting with "I'm thinking..") is the same, just using Rhythm 3 & Riff 1.

Chorus

Middle Solo:

Bb  Bb Bb |F F F |F# F# F# |G#
Bb Bb Bb Bb Bb |F F F |F# F# F# |G#

C  C C |G G G |G# G# G# |Bb
C C C C C |G G G |G# G# G# |Bb

Verse 3 same as Verse 1

Chorus:

   G#    D#       A#   C A#  
My love.... Come to me.....
     G#        D#     A#      C A#
Come around...... I'm lonely.......

Repeat Chorus x3 before a Solo Riff while other Guitar plays Chorus:

Solo:

Keep a fast Rhythm while playing
 E|---|-|---|----|---|-|---|----|---|---|---|----|---|-|---|
 B|---|-|---|----|---|-|---|----|---|---|---|----|---|-|---|
 G|---|-|---|----|---|-|---|----|---|---|---|----|---|-|---|
 D|-6-|-|-5-|----|-3-|-|-5-|----|-6-|---|-5-|----|-3-|-|-5-|
 A|---|-|---|----|---|-|---|----|---|---|---|----|---|-|---|
 E|---|-|---|----|---|-|---|----|---|---|---|----|---|-|---|
My love......Come to me.....Come Around......I'm lonely........

Repeat until End

End:
                               C
  E|---|------------|------------|
  B|---|------------|------------|
  G|---|------------|------------|
  D|-3-|------------|5-5-5-3-3-5-|
  A|---|------------|----------3-|
  E|---|------------|------------|
I'm lonely........................

I'm sure for you this will look very confusing, but if you listen to the guitar in Cold
Feet, you'll get what I mean, Just play the chords first, don't worry 'bout the rhythm,
then just play the rhythm along with the song & you'll get it.

Tab By Winno

winnong@hotmail.com  www.w-producks.4t.com
Comments