Gob - Cleansing Chords & Tabs

 

Cleansing Chords & Tabs

Gob Chords & Tabs

Version: 1 Type: Bass Tab

Cleansing Bass Tab

Intro:

G----------------------------|
D-----------------------3333-|
A-33333333331h333333333------|
E----------------------------|

Verse:

G------------------------------|
D--------------------5---------|
A-333333h5-5-3---5-3-----------|
E--------------3-------333-111-|

G------------------------------|
D--------------------5---------|
A-333333h5-5-3---5-3-----------|
E--------------3-------333-111-|

G------------------------------|
D--------------------5---------|
A-333333h5-5-3---5-3-----------|
E--------------3-------333-111-|

G------------------------------|
D--------------------5---------|
A-333333h5-5-3---5-3-----------|
E--------------3-------333-111-|

Chorus:

G------------------------------------|
D------------------------------------|
A---------------3-1-3-1-3--3-1-3-1-3-|
E-555555-111111----------------------|
[ Tab from: http://www.guitartabs.cc/tabs/g/gob/cleansing_btab.html ]
G-----------------------------|
D-----------------------------|
A---------------111111--------|
E-555555-111111--------333333-|

Verse:

G------------------------------|
D--------------------5---------|
A-333333h5-5-3---5-3-----------|
E--------------3-------333-111-|

G------------------------------|
D--------------------5---------|
A-333333h5-5-3---5-3-----------|
E--------------3-------333-111-|

G------------------------------|
D--------------------5---------|
A-333333h5-5-3---5-3-----------|
E--------------3-------333-111-|

G------------------------------|
D--------------------5---------|
A-333333h5-5-3---5-3-----------|
E--------------3-------333-111-|

Chorus:

G------------------------------------|
D------------------------------------|
A---------------3-1-3-1-3--3-1-3-1-3-|
E-555555-111111----------------------|

G-----------------------------|
D-----------------------------|
A---------------111111--------|
E-555555-111111--------333333-|