Gob - Bully Chords & Tabs

 

Bully Chords & Tabs

Gob Chords & Tabs

Version: 1 Type: Tab 0 ratings
1 star 2 stars 3 stars 4 stars 5 stars
comments

Bully Tab

   
Gob - Bully

Note: * signifies playing chord multiple times
Intro
e|---------------------------------------------------------------------------|
B|---------------------------------------------------------------------------|
G|---------------------------------------------------------------------------|
D|---------------------------------------------------------------------------|
A|-6*----6*-----2-2-9-9-6*----6*-----2-2-9-9--9*-----9*------2*------2*------|
E|-4-----4------0-0-7-7-4-----4------0-0-7-7--7------7-------0-------0-------|
pm .     .      . . . . .     .      . . . .  .      .       .       .
Pre-Verse
e|-----------------------------|
B|-----------------------------|
G|-----------------------------|
D|-6-6-6-2-2-9-9-6-6-6-2-2-9-9-|
A|-6-6-6-2-2-9-9-6-6-6-2-2-9-9-|
E|-4-4-4-0-0-7-7-4-4-4-0-0-7-7-|
[ Tab from: http://www.guitartabs.cc/tabs/g/gob/bully_tab.html ]
Verse
e|-------------------------------------------------------------------------|
B|-------------------------------------------------------------------------|
G|-------------------------------------------------------------------------|
D|-------------------------------------------------------------------------|
A|-6*----6*-----2-2-9-9-6*----6*-----2-2-9-9--9*-----9*------2*------2*----|
E|-4-----4------0-0-7-7-4-----4------0-0-7-7--7------7-------0-------0-----|
pm .     .      . . . . .     .      . . . .  .      .       .       .

Pre-Chorus
e|----------------|
B|-99999-121212---|
G|----------------|
D|----------------|
A|----------------|
E|----------------|

Chorus 2x
e|-------------------------------|
B|-------------------------------|
G|-------------------------------|
D|-6*-----2*-------9*----4*------|
A|-6------2--------9-----4-------|
E|-4------0--------7-----2-------|

Solo (dont know if this is correct)
e|--------------------------------------------------------|
B|-99999979-121212-111111-99-77777799-141414-121212-11----|   2x
G|--------------------------------------------------------|
D|--------------------------------------------------------|
A|--------------------------------------------------------|
E|--------------------------------------------------------|

Theo:
e|-------------------------------67976767-67976767-67976767-121212-141414-161616-17--|
B|--9999-7-9-99999-7-9-99999-7-99--------9--------9----------------------------------|
G|-----------------------------------------------------------------------------------|
D|-----------------------------------------------------------------------------------|
A|-----------------------------------------------------------------------------------|
E|-----------------------------------------------------------------------------------|
Comments