Gob - Break Chords & Tabs

 

Break Chords & Tabs

Gob Chords & Tabs

Version: 1 Type: Bass Tab 0 ratings
1 star 2 stars 3 stars 4 stars 5 stars
comments

Break Bass Tab

g|--------------------------------------------------------|
d|--------------------------------------------------------|
a|---------2~---------------------------------------------|
e|2~---0~-------------------------------------------------|intro

                                            play 2nd time  
g|-----------------------------------------|---------------|
d|-----------------------------------------|---------------|
a|------------------------------22222222---|44-------------|
e|22222222224444----000000000-------------|----------------|x2

g|--------------------------------------------------------|
d|--------------------------------------------------------|
a|-----------------------------222222222------------------|
e|2222222222222------00000000-----------------------------|versex4

g|--------------------------------------------------------|
d|--------------------------------------------------------|
a|-020------------44444444-----------22222222-------------|
e|2---2--22222222-----------00000000----------------------|chorus

g|--------------------------------------------------------|
d|--------------------------------------------------------|
a|-020------------4444444-2-4------------22222222-2-------|
e|2---2-22222222---------------00000000-------------------|


g|--------------------------------------------------------|
d|--------------------------------------------------------|
a|2-------------------------------------------------------|
e|-12\2---------------------------------------------------|

g|--------------------------------------------------------|
d|--------------------------------------------------------|
a|------------------2222----------------------------------|
e|2222--0000--2222----------------------------------------|post-chorus pt.1 x2

g|--------------------------------------------------------|
d|--------------------------------------------------------|
a|---------2~---------------------------------------------|
e|2~---0~-------------------------------------------------|pt.2
[ Tab from: http://www.guitartabs.cc/tabs/g/gob/break_btab.html ]
verse x4
chorus (mute the b note on the second time around)
post-chorus pt.1 x4

g|--------------------------------------------------------|
d|--------------------------------------------------------|
a|--------------------------------------------------------|
e|2~---40-------------------------------------------------|

g|--------------------------------------------------------|
d|-------------------222222222----------------------------|
a|-----------------------------222222222------------------|
e|22222222-44444444---------------------------------------| bridgex3


g|--------------------------------------------------------|
d|-------------------222222222----------------------------|
a|-----------------------------222222222222222------------|
e|22222222-44444444----------------------------2----------|

break:only guitar for a while,then u play at the end,
g|--------------------------------------------------------|
d|--------------------------------------------------------|
a|--------------------------------------------------------|
e|222222222222--------------------------------------------|

chorus

g|--------------------------------------------------------|
d|--------------------------------------------------------|
a|---------------2222-------------------------------------|
e|2222-0000-2222------------------------------------------|x3 outro

g|--------------------------------------------------------|
d|--------------------------------------------------------|
a|--------------------------------------------------------|
e|222222222222--------------------------------------------|

g|--------------------------------------------------------|
d|--------------------------------------------------------|
a|----------------2222------------------------------------|
e|2222-0000-2222------------------------------------------| x2

g|--------------------------------------------------------|
d|--------------------------------------------------------|
a|----------22224-----------------------------------------|
e|2222-0000-------2---------------------------------------|
Comments