Gob - Been So Long Chords & Tabs

 

Been So Long Chords & Tabs

Gob Chords & Tabs

Version: 1 Type: Tab 0 ratings
1 star 2 stars 3 stars 4 stars 5 stars
comments

Been So Long Tab

   
#----------------------------------PLEASE NOTE---------------------------------#
#This file is the author's own work and represents their interpretation of the #
#song. You may only use this file for private study, scholarship, or research. #
#------------------------------------------------------------------------------##


Gob - Been So Long
Tabbed by Slick With The Pick


~~~~~~~~~~~~~~~~~~~~~~~~~~~~~~~~~~~~~~~~~~~~~~~~~~~~~~~~~~~~~~~~~~~~~

Intro
*Played 4 times.
*Guitar two comes in on 3rd
*Guitar two repeats
*End intro with Guitar One played 4 times, Guitar Two played 2 times, end at same time. Then to Part One.

~~~~~~~~~~~~~~~~~~~~~~~~~~~~~~~~~~~~~~~~~~~~~~~~~~~~~~~~~~~~~~~~~~~~~

Intro Guitar One

1------9-9-9-9-10-10-10-10-9-9-9-9-10-10-10-10-----------------------
2--------------------------------------------------------------------
3--------------------------------------------------------------------
4--------------------------------------------------------------------
5--------------------------------------------------------------------
6--------------------------------------------------------------------

1------9-9-9-9-10-10-10-10-9-9-9-9-7-7-7-7---------------------------
2--------------------------------------------------------------------
3--------------------------------------------------------------------
4--------------------------------------------------------------------
5--------------------------------------------------------------------
6--------------------------------------------------------------------


~~~~~~~~~~~~~~~~~~~~~~~~~~~~~~~~~~~~~~~~~~~~~~~~~~~~~~~~~~~~~~~~~~~~~


Intro Guitar Two

1------44------44------6---6h8p6s4----------------
2---------44------444-------------------4---------
3-------------------------------------------------
4-------------------------------------------------
5-------------------------------------------------
6-------------------------------------------------


1------44-----44------8---8p6s4---8----6----------
2---------44-----444------------------------------
3-------------------------------------------------
4-------------------------------------------------
5-------------------------------------------------
6-------------------------------------------------
[ Tab from: http://www.guitartabs.cc/tabs/g/gob/been_so_long_tab.html ]
~~~~~~~~~~~~~~~~~~~~~~~~~~~~~~~~~~~~~~~~~~~~~~~~~~~~~~~~~~~~~~~~~~~~~

Part One (Verses)

~ Guitar One
*Palm muted
*8 Times strummed down in 8th Notes
*Accompanies Bass Guitar playing same notes

~ Guitar Two
*Comes in along with lines “I have your image deep inside of me” and 
“I have your picture it’s apart of me”.

Guitar One
      G         A          E          C
1--------------------------------------
2--------------------------------------
3------------------------------5-------
4---5--------7--------2--------5-------
5---5--------7--------2--------3-------
6---3--------5--------0----------------

Guitar Two

1--------------------------------------
2--------------------------------------
3--------------------------------------
4---5-5-5-5-5-5-5-5---6-5-6-5-3--------
5---8-8-8-8-8-8-8-8---4-3-4-3-1--------
6--------------------------------------

~~~~~~~~~~~~~~~~~~~~~~~~~~~~~~~~~~~~~~~~~~~~~~~~~~~~~~~~~~~~~~~~~~~~~

Part Two (Chorus)

1---------------------------------------------------------------------------------------------
2---------------------------------------------------------------------------------------------
3------------------------------------------------------------------------5---x---5---x---5----
4---5---x---5---x---5--5s7---7---x---7---x---2---2---2---2---2---5---x---5---x---5---x---5----
5---5---x---5---x---5--5s7---7---x---7---x---2---2---2---2---2---3---x---3---x---3---x---3----
6---3—x-----3---x---3--3s5---5---x---5---x---0---0---0---0---0---3----------------------------



~~~~~~~~~~~~~~~~~~~~~~~~~~~~~~~~~~~~~~~~~~~~~~~~~~~~~~~~~~~~~~~~~~~~~

Solo

1--------------------------------------7h9p7-------------7h9p7------------7h9p7--------------11(x6)---
2---9—9p8h9---9p8---6---8---9s11--------------10---9-------------10---9-------------10---9------------
3-----------------------------------------------------------------------------------------------------
4-----------------------------------------------------------------------------------------------------
5-----------------------------------------------------------------------------------------------------
6-----------------------------------------------------------------------------------------------------

~~~~~~~~~~~~~~~~~~~~~~~~~~~~~~~~~~~~~~~~~~~~~~~~~~~~~~~~~~~~~~~
Comments