Gob - All We Are Chords & Tabs

 

All We Are Chords & Tabs

Gob Chords & Tabs

Version: 1 Type: Bass Tab

All We Are Bass Tab

intro/outro
------------------|
------------------|
----------4-3-4-3-|
-44444444---------| 4X

verse
-------------------------------|
-------------------------------|
-----------------4-4-44--------|
-4-4-4-4-4-4-4-4--------4-4-44-| 2X

chorus
-----------------------------------|
-----------------------------------|
---------44-4-4-4---------66-6-6-6-|
-2-2-2-2----------4-4-4-4----------|

------------------|
------------------|
---------44-4-4-4-|
-2-2-2-2----------|

intro/outro
------------------|
------------------|
----------4-3-4-3-|
-44444444---------| 2X

verse
-------------------------------|
-------------------------------|
-----------------4-4-44--------|
-4-4-4-4-4-4-4-4--------4-4-44-| 2X

chorus
-----------------------------------|
-----------------------------------|
---------44-4-4-4---------66-6-6-6-|
-2-2-2-2----------4-4-4-4----------| 2X
[ Tab from: http://www.guitartabs.cc/tabs/g/gob/all_we_are_btab.html ]
bridge
-------------------------------------------------------------|
---------------------------------------------------------6---|
-4-4-4-4---------6-6-6-6-6-6-6-6-4-4-4-4---------6-6-6-6---6-|
---------4-4-4-4-------------------------4-4-4-4-------------|

-------------------------------------------------------|
-------------------------------------------------------|
-4-4-4-4---------6-6-6-6-6-6-6-6-4-4-4-4---------6-6-6-|
---------4-4-4-4-------------------------4-4-4-4-------|

verse
-------------------------------|
-------------------------------|
-----------------4-4-44--------|
-4-4-4-4-4-4-4-4--------4-4-44-| 2X

chorus
-----------------------------------|
-----------------------------------|
---------44-4-4-4---------66-6-6-6-|
-2-2-2-2----------4-4-4-4----------| 2X

------------------|
------------------|
---------44-4-4-4-|
-2-2-2-2----------|

intro/outro
------------------|
------------------|
----------4-3-4-3-|
-44444444---------| 8X

ends on
---
---
---
-4-