Gob - 144 Chords & Tabs

 

144 Chords & Tabs

Gob Chords & Tabs

Version: 1 Type: Tab 0 ratings
1 star 2 stars 3 stars 4 stars 5 stars
comments

144 Tab

   
144 - GOB  
 
- By: Punkin Grandma alias Francois Caron-Soucy          
 
INTRO  
 
e|--------|------------------------------------------------------|  
B|--------|------------------------------------------------------|  
G|--------|------------------------------------------------------|  
D|----3---|---------3-3-3--------3-3-3--------3-3-3--------------|  
A|----3---|---------3-3-3--------3-3-3--------3-3-3--------------|  
E|----1---|---------1-1-1--------1-1-1--------1-1-1--------------|  
 
 
1st VERSE  
 
Guitar 1  
Palm Mute  
"I want to know the place..."  
e|--------------------------------------------------------------|  
B|--------------------------------------------------------------|  
G|-----------6------------8-------------------------------------|  
D|---3-------6-------6----8-------------------------------------|  
A|---3-------4-------6----6-------------------------------------|  
E|---1---------------4------------------------------------------|  
 
Guitar 2  
3rd time to 5th time only  
"I want to know the place...", but you start at "I offer me..."  
e|--------------------------------------------------------------|  
B|---5--------3---5-------3---5--------3---5--------3-----------|  
G|--------6------------6-----------6------------6---------------|  
D|--------------------------------------------------------------|  
A|--------------------------------------------------------------|  
E|--------------------------------------------------------------|  
 
 
CHORUS  
 
Part A: Guits 1 & 2      Part B: Guit 1      Part C: Guit 2  
"When you walk..."                                          
             Part A                                                    
                
e|--------------------------------------------|  
B|--------------------------------------------|  
G|--------------8---------6-6-------8-------6-| Goto B  
D|--5---3---6---8---8-8---6-6---3---8---8---6-| Or C  
A|--5---3---6---6---8-8---4-4---3---6---8---4-|  
E|--3---1---4-------6-6---------1-------6-----|  
 
        Part B               Part C  
e|--------------------|--------------------|  
B|--------------------|--------------------|  
G|------------------8-|--------------------|  
D|--3-3-3---5---6---8-|--10--11--10--8-----|  
A|--3-3-3---5---6---6-|-----------------11-|  
E|--1-1-1---3---4-----|--------------------|  
 
 
2nd VERSE  
 
Guitar 1  
Palm mute  
"And we'll be like..."  
Only at the 3rd and 4th time  
e|--------------------------------------------------------------|  
B|--------------------------------------------------------------|  
G|-----------6---------------8----------------------------------|  
D|---3-------6-------6-------8----------------------------------|  
A|---3-------4-------6-------6----------------------------------|  
E|---1---------------4------------------------------------------|  
 
Guitar 2  
"And we'll be like..."  
Only at the end of the 1st and 3rd time      4th time  
e|-----------------------------------------|--------------------|  
B|---------------------------7---6---------|--------------------|  
G|-----------------------------------------|-6--6--6--6--6------|  
D|-----------------------------------------|-6--6--6--6--6------|  
A|-----------------------------------------|-4--4--4--4--4------|  
E|-----------------------------------------|--------------------|  
 
 
After 2nd CHORUS  
 
Guitar 1 always plays:  
e|--------------------------------------------------------------|  
B|--------------------------------------------------------------|  
G|--------------------------------------------------------------|  
D|---3-3-3---3-3-3---3-3-3---3-3-3---3-3-3---3-3-3--------------|  
A|---3-3-3---3-3-3---3-3-3---3-3-3---3-3-3---3-3-3--------------|  
E|---1-1-1---1-1-1---1-1-1---1-1-1---1-1-1---1-1-1--------------|  
 
Guitar 2  
e|--------------------------------------------------------------|  
B|--------------------------------------------------------------|  
G|-----10-------8--------6--------8--------10-------------------|  
D|-----10-------8--------6--------8--------10-------------------|  
A|-----8--------6--------4--------6--------8--------------------|  
E|--------------------------------------------------------------|  
 
 
FINAL  
 
Guitar 1 & 2  
"I want to be..."  
No mute  
e|--------------------------------------------------------------|  
B|--------------------------------------------------------------|  
G|-----------6---------------8----------------------------------|  
D|---3-------6-------6-------8----8---3-------------------------|  
A|---3-------4-------6-------6----8---3-------------------------|  
E|---1---------------4------------6---1-------------------------|
[ Tab from: http://www.guitartabs.cc/tabs/g/gob/144_tab.html ]
Comments