Go Gos - Our Lips Are Sealed Chords & Tabs

 

Our Lips Are Sealed Chords & Tabs

Go Gos Chords & Tabs

Version: 1 Type: Tab 0 ratings
1 star 2 stars 3 stars 4 stars 5 stars
comments

Our Lips Are Sealed Tab

   
#----------------------------------PLEASE NOTE---------------------------------#
#This file is the author's own work and represents their interpretation of the #
#song. You may only use this file for private study, scholarship, or research. #
#------------------------------------------------------------------------------##

song: Our Lips Are Sealed
artist: The Go-Gos
album: Beauty and the Beat (1981)
submitted by: Chris Perkins
comments?: ride9627@ride.ri.net

The chord progression is as follows:
verses:  G - F - C - C
chorus:  Bb - C - Eb/D - D - G - F - C - C

(note: I have seen two other tabs with Ab in
place of the Eb/D.  I like my Eb/D way better.)

The Go-Gos play this mainly with power chords, 
but I find that the full chords work very 
well.  Strum with a strong, steady rhythm, 
letting the top notes ring.  Note that the 
verses and the chorus have different strumming 
patterns.

Here, more or less, is how I play it:
[ Tab from: http://www.guitartabs.cc/tabs/g/go_gos/our_lips_are_sealed_tab.html ]
*Intro and verses:
  G        F        C        C        
e|---3--3-|---1--1-|---0--0-|--------|
B|---0000-|---1111-|---1111-|-10-10--|
G|---0000-|---2222-|---0000-|---0--0-| (repeat)
D|---0000-|---3333-|2222--22|2-------|
A|2222--2-|3333--33|3333--33|3-------|
E|3333--31|1111--1-|--------|-------3|


*Chorus:
  Bb       C        Eb/D     D        
e|--1--111|--0--000|--3--333|--2--222|
B|33333333|11111111|44444444|33333333|
G|33333333|00000000|33333333|22222222|
D|33333333|22222222|00-00---|00-00---|
A|11-11---|33-33---|--------|--------|
E|--------|--------|--------|--------|                              

  G        F        C        C        
e|---3--3-|---1--1-|---0--0-|--------|
B|---0000-|---1111-|---1111-|-10-10--|
G|---0000-|---2222-|---0000-|---0--0-|
D|---0000-|---3333-|2222--22|2-------|
A|2222--2-|3333--33|3333--33|3-------|
E|3333--31|1111--1-|--------|-------3|


*Bridge:
e|--3232--|--3232--|--3232--|--3232--|
B|------3-|------3-|------3-|------3-|
G|0-------|0-------|--------|0-------|
D|--------|--------|--------|--------|
A|--------|--------|--------|--------|
E|3-------|--------|3-------|--------|

e|--3232--|--3232--|--3232--|--------|
B|------3-|------3-|------3-|--------|
G|--------|0-------|--------|--------|
D|--------|--------|--------|--------|
A|--------|--------|--------|--222---|
E|3-------|--------|3------3|33333---|
                                 (palm mute)

*Coda: simple C - F - G 


*Coda:
Our lips are sealed.

Comments