Glyn Edwards - Names Bond James Bond Chords & Tabs

 

Names Bond James Bond Chords & Tabs

Glyn Edwards Chords & Tabs

Version: 1 Type: Tab 0 ratings
1 star 2 stars 3 stars 4 stars 5 stars
comments

Names Bond James Bond Tab

#----------------------------------PLEASE NOTE--------------------------------#
#This file is the author's own work and represents their interpretation of the#
#song. You may only use this file for private study, scholarship, or research.#
#-----------------------------------------------------------------------------#
#-- File created with Instab - http://www.pconline.com/~smcarey/instab.html --#
#-----------------------------------------------------------------------------#

Artist: Glyn Edwards (http://glynjedwards.dmusic.com)
Title: Name's Bond... James Bond
Tabber: Andrew Biles

This is a great compilation of James Bond themes compiled together by Glyn Edwards.
I've mainly tabbed the one guitar from the song that you are most likely to recognise,
and there's a couple of mistakes, but hopefully they're not overly big mistakes.
Much appreciated help from Glyn.
Anyway, Standard Tuning.

|----------------------------------------------------------------------------
|--------16-15---12h13p12-------------------12h13p12-------------------------
|-----12------------------14-12-14-14/16-------------14-12-14-14/16-14h16-14-
|-/14------------------------------------------------------------------------
|----------------------------------------------------------------------------
|----------------------------------------------------------------------------
  0:03

---------------------------
---------------------------
-12h14-12-11h12------------
----------------14--12-14--
---------------------------
---------------------------


|-----------------------------------
|-----------------------------------
|---------------------------------2-
|-----0h2p0-----2-------0h2p0-----2-
|-0h2-------0h2-2---0h2-------0h2-0-
|---------------0-------------------
  0:19  

|----------------------------------|-------------
|----------------------------------|-4-2---------
|----------------------------------|------4/2-4--
|----------------------------------|-------------
|----------------------------------|-------------
|-0-2-2-2-2-0-0-0--0-3-3-3-3-2-2-2-|-------------
  0:36 & 0:56                        0:52

|---------------16-----------------|------------16---------------------16-----
|--9---5-----17-----17---9---5-----|---------17-----17--------------17-----17-
|--9---5-----------------9---5-----|-13----------------------13---------------
|--9---5-----------------9---5-----|----14---------------x-x----14------------
|--7---3-----------------7---3-----|------------------------------------------
|----------------------------------|------------------------------------------
  1:12                               1:20

-------------------------------------
----------------------10-9-8---------
-13-----------9----------------------
----14p12/7-9---7h9-7-----------5-5--
--------------------------------5-5--
--------------------------------3-3--


|--------------------------------
|--------------------------------
|-----4---5---6-------4---5------
|-4---4---5---6---4---4---5---4--
|-4---2---3---4---4---2---3---4--
|-2---------------2-----------2--
  1:35            ^both guitars 
[ Tab from: http://www.guitartabs.cc/tabs/g/glyn_edwards/names_bond_james_bond_tab.html ]
-------------------------------------------------------------------7^-7^-5-
----------------------------/7-9-9-------------------/7-9-9----------------
------------------------------------6-8-9^-------------------6-8-9---------
--------------------------------------------7-9-7-4------------------------
---------------------------------------------------------------------------
---------------------------------------------------------------------------
 (in-line with above staff) 1:50 

--------------------------------------------------
-/7-9-9-------------------/7-9-9------------------
---------6-8-9^-------------------6-8-9-----------
-----------------7-9-7-4-----------------9^-9^-7--
--------------------------------------------------
--------------------------------------------------


|------------------------------------|--------
|-10-9h10-9-7h9-7-5--8-7h8-7-5h7-5-3-|-5------
|------------------------------------|--------
|------------------------------------|--------
|------------------------------------|--------
|------------------------------------|--------
  2:06                            x2   2:14

|-----------------------------------------|------
|-----------------------------------------|------
|-----------------------------------------|------
|-----------------------------------------|------
|-12-11h12-11-9h11-9-7--10-9h10-9-7h9-7-5-|-7----
|-----------------------------------------|------
  2:18               ^PH (2nd)         x2   2:26 

|-x-x-x-------------------------------------|----------------------
|-x-x-x---x---------------------------------|----------------------
|-x-x-x-x-x---------------------------------|----------------------
|-x---x-x-x---------------------------------|----------------------
|-x-------x---------------------------------|-2-2-2-2-2-2-2-2-2-2--
|-------------------------------------------|-0-0-0-0-0-0-0-0-0-0--
 with wah (mutes around 7/8th fret) (2:29)   (2:36) Rising 

|--------------------
|--------------------
|--------------------
|-9---10---11---10---
|--------------------
|--------------------
 2:46 (second guitar)

|-------------------------------------------------------------14^15^14-
|---------------------15p12-15-15p12-15^17-15^17~~~~---12--------------
|-(16)^14-12---14^16--------------------------------------12-----------
|----------------------------------------------------------------------
|----------------------------------------------------------------------
|----------------------------------------------------------------------
  3:01 (third guitar)                                   ^NH^

|---------
|---------
|---------
|-5-4-2-0-
|---------
|---------

|------------------------|--------------------------------------------------
|------------------------|--------------------------------------------------
|------------------------|----------------------2-4-4-----4-4-----4-4-4-4-4-
|-2--2-4--4-5--5-5/7-5-4-|-2--2-4--4-5--5-5/7-5--------2-------2------------
|------------------------|-----------------------------2-------2------------
|------------------------|-----------------------------0-------0------------
  3:10                 x3   3:22 

|-------------
|-----------7-
|---------8---
|-------9-----
|----10-------
|--0----------
  3:31

any questions? andrewbiles@hotmail.com
Comments