Glueleg - Dragonfly Chords & Tabs

 

Dragonfly Chords & Tabs

Glueleg Chords & Tabs

Version: 2 Type: Tab 0 ratings
1 star 2 stars 3 stars 4 stars 5 stars
comments

Dragonfly Tab

----------------------------------PLEASE NOTE--------------------------------#
#This file is the author's own work and represents their interpretation of the#
#song. You may only use this file for private study, scholarship, or research.#
#-----------------------------------------------------------------------------#

Date: Sat, 04 Apr 1998 21:14:34 -0800
From: Steven 
Subject: TAB:"Dragonfly" by "Glueleg"



Well here it is, dragonfly.  I hope you like it.  A few things that need
mentioning are that of course riff 1 isn't really a guitar riff . . .
it's just that it sounds so cool I thought you might want it.  Oh yeah
and Riff six has another variation that I couldn't quite pick out.

For more Glueleg Tabs, go to: 
http://www.islandnet.com/~sfissel/glueleg/glueleg.htm


Riff 1
                                                                        
E---5-6-5-5-6-5-8-8-----------------------------------------------------
B---5-6-5-5-6-5-8-8-----------------------------------------------------
G-----------------------------------------------------------------------
D-----------------------------------------------------------------------
A-----------------------------------------------------------------------
D-----------------------------------------------------------------------

Riff 1a
E--5-6-5-------
B--5-6-5-------
[ Tab from: http://www.guitartabs.cc/tabs/g/glueleg/dragonfly_tab_ver_2.html ]
                                                                        
Riff 2
                                                                        
E-----------------------------------------------------------------------
B--------------------------3--------------------------------------------
G--------------------------2--------------------------------------------
D---------7---5-5----0-0---0--------------------------------------------
A---------7---5-5--3-0-0---0--------------------------------------------
D---------7---5-5--3-0-0---0--------------------------------------------
                                                                        
Riff 3
                                                                        
E-----------------------------------------------------------------------
B-----------------------------------------------------------------------
G-----------------------------------------------------------------------
D-----------------7---5-5---3-------------------------------------------
A-----------------7---5-5---3-------------------------------------------
D-----------------7---5-5---3-------------------------------------------
                                                                        
Riff 4
                                                                        
E-----------------------------------------------------------------------
B-----------------------------------------------------------------------
G-----------------------------------------------------------------------
D-------------------------1-0---4-3---6-5-------------------------------
A-------------------------1-0---4-3---6-5-------------------------------
D-------------------------1-0---4-3---6-5-------------------------------
                                                                        
Riff 5
                                                                        
E-----------------------------------------------------------------------
B-----------------------------------------------------------------------
G-----------------------------------------------------------------------
D-------------------------------1-0---4-3---6---------------------------
A-------------------------------1-0---4-3---6---------------------------
D-------------------------------1-0---4-3---6---------------------------
                                                                        
Riff 6
                                                                        
E-----------------------------------------------------------------------
B-----------------------------------------------------------------------
G-----------------------------------------------------------------------
D---------------------------------------7-x-x-7-x-7-7-5-7-7-------------
A---------------------------------------7-x-x-7-x-7-7-5-7-7-------------
D---------------------------------------7-x-x-7-x-7-7-5-7-7-------------
                                                                        
Riff 7
                                                                        
E-----------------------------------------------------------------------
B----7-7---8-8--8---10--------------------------------------------------
G-----------------------------------------------------------------------
D-----------------------------------------------------------------------
A-----------------------------------------------------------------------
D-----------------------------------------------------------------------
                                                                        

Order of things

Riff 1 x3
Riff 1a x1
Riff 2 x3
Riff 3 x1
Riff 4 x3
Riff 5 x1
Riff 2 x3
Riff 3 x1
Riff 4 x3
Riff 5 x1
Riff 1 x11
Riff 6 x7
Riff 7 x1
Riff 2 x3
Riff 3 x1
drums
Riff 2 x3
Riff 3 x1
Riff 4 x3
Riff 5 x1


========================================================================
==                       TABLATURE EXPLANATION                        ==
========================================================================

----------                ----------                ----t---
----5h8--- Hammeron       ----(8)--- Ghost          ----6--- Tap
----------                ---------- Note           --------
----5p8--- Pulloff        ----------                --------

----------                ----------                -----p--
----5/8--- Slide Up       -----x---- Dead           -----7-- Pop
----------                ---------- Note           --s-----
----5\8--- Slide Down     ----------                --5----- Slap 

----------                ||------|| Repeat         --------
----5~~~-- Vibrato        ||*----*||                ---5^--- Bend
----------                ||*----*||                --------
----------                ||------||                --------

----------                ----------                --------
-4:------- Time           ----------                --------
-4:------- Signature      ----------                --------
----------                ----------                --------

========================================================================
==            Created with a demo version of BUCKET O' TAB            ==
==              tablature creation software for Windows               ==
==                  For more info email gse@his.com                   ==
========================================================================
Comments