Glory Of This - Senior Superlative Chords & Tabs

 

Senior Superlative Chords & Tabs

Glory Of This Chords & Tabs

Version: 1 Type: Tab

Senior Superlative Tab

   
http://www.gloryofthis.com/

Drop C-

||---------10----------------10---------------------------------|
||-----8------8---8------8------8---8---------------------------|
||-7-7---7------7----7-7---7------7-----------------------------|
||--------------------------------------------------------------|
||--------------------------------------------------------------|
||--------------------------------------------------------------|
[ Tab from: http://www.guitartabs.cc/tabs/g/glory_of_this/senior_superlative_tab.html ]
||--------------------------------------------------------------|
||-----8---7h8-7h8-----8---7h8-7h8------------------------------|
||-9-9---9---------9-9---9--------------------------------------|
||--------------------------------------------------------------|
||--------------------------------------------------------------|
||--------------------------------------------------------------|

||-----8---10-8-7-8-----8---10-8-7-8----------------------------|
||-8-8---8----------8-8---8-------------------------------------|
||--------------------------------------------------------------|
||--------------------------------------------------------------|
||--------------------------------------------------------------|
||--------------------------------------------------------------|

||--------------------------------------------------------------|
||---------7----5-----------------------------------------------|
||-7~-----------------------------------------------------------|
||--------------------------------------------------------------|
||--------------------------------------------------------------|
||--------------------------------------------------------------|

Thanks, rate please....