Glister - Over Chords & Tabs

 

Over Chords & Tabs

Glister Chords & Tabs

Version: 1 Type: Tab 0 ratings
1 star 2 stars 3 stars 4 stars 5 stars
comments

Over Tab

INTRO: verse
e|------------------------------------------------------------------------------------|
B|--------0----------------4----------------0----------------4------------------------|
G|---6-6---6---6--------4---4---4--------6---6---6--------4---4---4-------------------|
D|--6-6-6---6-6-6-----6--6---6-6-6-----6--6---6-6-6-----6--6---6-6-6------------------|
A|-4-----4---4---4---4-4--4---4---4---4-4--4---4---4---4-4--4---4---4-----------------|
E|------------------7----------------5----------------7-------------------------------|
 
[ Tab from: http://www.guitartabs.cc/tabs/g/glister/over_tab.html ]
CHORUS:
e|-------0-0---------0--------------------------------|
B|-------0--0--------0--------------------------------|
G|-------6---0-------6--------------------------------|
D|-6-6-4-6-----6-6-4-6-7/9-9-9/11-11-11\9-9-----------|
A|-4-4-2-4-----4-4-2-4--------------------------------|
E|-4-4-2-5-----4-4-2-5-5/7-7-7/9--9---9\7-7-----------|


BRIDGE:
e|---------------------|------------------------|-----------0------|
B|---------------------|------------------------|-----------0------|
G|---------------------|-13-13-11-11-9/11\9-8-6-|---9-6-6-6-6------|
D|-6-6-4-4-7-7-9-11-11-|--------------------6-7-|-2-9-6-6-6-6------|
A|---------------------|-11-11-9--9--7/9-\7-----|-2-7-4-4-4-4------|
E|-4-4-2-2-5-5-7-9--9--|------------------------|-0-0-------5------|
Comments