Glassjaw - When One Eight Becomes Two Zeros Chords & Tabs

 

When One Eight Becomes Two Zeros Chords & Tabs

Glassjaw Chords & Tabs

Version: 1 Type: Tab 0 ratings
1 star 2 stars 3 stars 4 stars 5 stars
comments

When One Eight Becomes Two Zeros Tab

Artist - GlassJAw
Song   - When One Eight Becomes Two Zeros
Album  - Everything You Ever Wanted To Know About Silence
Tuning - DADGBE
Tabbed by David Diuguid (aka bmskate/DEFreak13)
Date: 01/03/02

pm... = palm mute
^#    = bend (to note of #)
r#    = release bend (to note of #)
s     = slide
/\    = hammer on/off
<#> h = harmonic
(#)   = don't pick the note; slide down/up to that # or start at that # (relative, not approximate)


Intro - Guitar 2 [distortion/chorus/tremolo] (0:07) (1:39) (3:37)
"Glad when your near, sad that your here, this is what it's like to be me"
|------------|---------------|------------|------------------|
|----6--5--6-|----6--5--6----|----6--5--6-|----6--5-----5----|
|-7----------|-7-----------5-|-5----------|-7--------5-----5-|
|------------|---------------|------------|------------------|
|------------|---------------|------------|------------------|
|------------|---------------|------------|------------------|


Intro - Guitar 1 [distortion/tremolo] (0:07) (1:39)
"Glad when your near, sad that your here, this is what it's like to be me"
|-0-|
|-3-|
|-2-|
|-0-|
|-0-|
|-0-|


Verse - Guitar 2 [chorus/tremolo] (0:46) (1:52)
"This all hurts me so much, that i honestly believe you're the one this is hard for..."
|---0-----0-------3-------3---|-----------|
|-6-----6---6---6---6---6---6-|-----------|
|-----5-------5-------5-------|-----------|
|-----------------------------|-0-0---0-0-|<-2nd verse-guitar 1 does this & guitar
|-----------------------------|-0-0---0-0-|  2 hits 0 on the low d string
|-----------------------------|-0-0---0-0-|  with dist/trem/delay/reverb


Chorus - Guitar 1 [distortion/compression] (1:13) (2:20) (3:12)
"Knee deep in static, i hear you breaking up, we're breaking up...
pm.....       .....       ...     .....       .....       ...
|-----------------------------------------------------------------|---------|
|-----------------------------------------------------------------|---------|
|-------3-3-3-------3-3-3-----3-3---------------------------------|-5--5----|
|-0-0-0-3-3-3-0-0-0-3-3-3-0-0-3-3-0-0-0-3-3-3-0-0-0-3-3-3-0-0-3-3-|-5--5--0-|
|-0-0-0-1-1-1-0-0-0-1-1-1-0-0-1-1-0-0-0-3-3-3-0-0-0-3-3-3-0-0-3-3-|-3--3--0-|
|-0-0-0-------0-0-0-------0-0-----0-0-0-------0-0-0-------0-0-----|-3--3--0-|

[ Tab from: http://www.guitartabs.cc/tabs/g/glassjaw/when_one_eight_becomes_two_zeros_tab.html ]
Chorus - Guitar 2 [distortion/tremolo] (1:13) (2:20) (3:12)
"Knee deep in static, i hear you breaking up, we're breaking up...
|-17-----------17-----------------------------|
|----17-18--------17-18-----15----15----15----|
|----------17-----------17-----17----17----17-|
|---------------------------------------------|
|---------------------------------------------|
|---------------------------------------------|

[distortion]
|-10-------0-------13-------------------|
|----10------10-----------8------9----6-|
|-------10------10----------9/10---10\9-|
|---------------------------------------|
|---------------------------------------|
|---------------------------------------|


Fill (1:38)
|---------------|
|---------------|
|---------------|
|-0-0-0-0-0-0-0-|
|-0-0-0-0-0-0-0-|
|-0-0-0-0-0-0-0-|


Interlude - Guitar 1 [distortion/chorus] (2:46)
"So we're growing, i'm sure, there's no other i can turn to..."
|-7---------7-------------------------|
|-10--------9-------------------------|
|-9---------9-------------------------|
|-7---------7-------------------------|
|-7-(strum)-7-(every once in a while)-|
|-7---------7-------------------------|


Interlude - Guitar 2 [distortion/chorus] (2:46)
"So we're growing, i'm sure, there's no other i can turn to..."
|-7--------------------------10--9---7---------------------12-------|
|-10-(strum)-9--9--9--9-9----10--10--10--7s9--10---10---12----12-10-|
|-9----------11-11-11-9-9-9--9---9---9---7s9-----9----9-------------|
|-------------------------------------------------------------------|
|-------------------------------------------------------------------|
|-------------------------------------------------------------------|

|------------------------------------------------------------|
|----------------------------------------------10------------|
|----------------------11--9----------------9-----9---11-9---|
|-7-9-11-7-9-11-7-9-11--------7-9-11-7-9-11---------7------9-|
|------------------------------------------------------------|
|------------------------------------------------------------|

|----------------------------------------------------------|
|----------------------------------------------------------|
|-------------------------10-----10-----9-----10-----9-----|
|---------------9--11--9-----9------9-----9------9-----9---|
|-7-9-11-7-9-11----------------7------7-----7------7-----7-|
|----------------------------------------------------------|


Comments	*such an emotional song
		*diff version appears on monster zero demo
		*song daryl dedicated to nona

If you have any questions or comments, contact me via e-mail bmskate@hotmail.com or on Instant Messenger 
DEFreak13
Comments