Glassjaw - Siberian Kiss Chords & Tabs

 

Siberian Kiss Chords & Tabs

Glassjaw Chords & Tabs

Version: 1 Type: Tab 0 ratings
1 star 2 stars 3 stars 4 stars 5 stars
comments

Siberian Kiss Tab

drop D tuning

palm mute = (.) mute the notes with the dot above
slide = from / to
 
intro . ... .        GIVE ME BACK             .  ...
---------------------------------------------------------------------
---------------------------------------------------------------------
---------------------------------------------------------------------
--3-2---------1--11100011100011100011100043-32---111000111000111000111
--3-2-0-----0-1--11100011100011100011100023-12-32111000111000111000111
--3-2-0-000-0-1--111000111000111000111000-3x-2032111000111000111000111

[ Tab from: http://www.guitartabs.cc/tabs/g/glassjaw/siberian_kiss_tab.html ]
    .  .   
--------------
--------------
--------------
-000-2---3----       < play this whole part twice ^
-000-2---3----
-00002-0-3----

    .   .      .   .   .      .   .   .   .     .    .   .
-------------------------------------------------------------
-12--12--13/12--12--12--13/12--12--12--12--13/12--12---------
---11--11-----11--11--11-----11--11--11--11-----11-----------
-------------------------------------------------------3---2-
-------------------------------------------------------3---2-
-----------------------------------------------------0-3-0-2-


Im getting tired so I'll submit the rest soon:>
Comments