Glassjaw - Ry Rys Song Chords & Tabs

 

Ry Rys Song Chords & Tabs

Glassjaw Chords & Tabs

Version: 1 Type: Tab 0 ratings
1 star 2 stars 3 stars 4 stars 5 stars
comments

Ry Rys Song Tab

   
Artist - GlassJAw
Song   - Ry Ry's Song
Album  - Everything You Ever Wanted To Know About Silence
Tuning - EADGBE
Tabbed by David Diuguid (aka bmskate/DEFreak13)

pm... = palm mute
s     = slide
/\    = hammer on/off
<#>   = harmonic
(#)   = don't pick the note; slide down/up to that # or start at that # (relative, not approximate)


Intro - Guitar 1 [distortion]
|---------------------------------|---------------------|---------|
|---------------------------------|---------------------|---------|
|---------------------------------|---------------------|---------|
|---------------------------------|---------------------|---------|
|---------------------------------|-<5>-------------<5>-|---------|  double the speed
|-<5>-<5>-<5>-<5>-<5>-<5>-<5>-<5>-|-----<5>-<5>-<5>-----|-<5>s<1>-|<-of picking here


Intro - Guitar 2 [distortion]
|---------------------------------|-----------------------------------------|
|---------------------------------|---------------------------------<5>-----|
|---------------------------------|---------------------<5>-----<5>-----<5>-|
|---------------------------------|-<5>-----<5>-----<5>-----<5>-------------|
|---------------------------------|-----<5>-----<5>-------------------------|
|-<5>-<5>-<5>-<5>-<5>-<5>-<5>-<5>-|-----------------------------------------|

Verse - Guitar 1 [distortion]
|---------------------------------------------------------|
|-3--3--3--3--3--3--3--3--1-1-1-1-1-1-1-1-1-1-1-1-1-1-1-1-|
|-2--2--2--2--2--2--2--2--0-0-0-0-0-0-0-0-0-0-0-0-0-0-0-0-|
|-4--4--4--4--4--4--4--4--2-2-2-2-2-2-2-2-2-2-2-2-2-2-2-2-|
|-2--2--2--2--2--2--2--2--0-0-0-0-0-0-0-0-0-0-0-0-0-0-0-0-|
|---------------------------------------------------------|


Verse - Guitar 2 [distortion]
|---------------------------------------------------------|
|-3--3--3--3--3--3--3--3--1-1-1-1-1-1-1-1-1-1-1-1-1-1-1-1-| (only does this for
|-2--2--2--2--2--2--2--2--0-0-0-0-0-0-0-0-0-0-0-0-0-0-0-0-|  1/2 of 1st verse)
|-4--4--4--4--4--4--4--4--2-2-2-2-2-2-2-2-2-2-2-2-2-2-2-2-|
|-2--2--2--2--2--2--2--2--0-0-0-0-0-0-0-0-0-0-0-0-0-0-0-0-|
|---------------------------------------------------------|

[distortion/chorus]
E|----------------------------------------------------------|
B|-10\0/3/10\0/3/10\0/3/10\0/3/10\0/3/10\0/3/10\0/3/10\0/3/-|
G|----------------------------------------------------------|

|----------------------------------------------------------|
|-/8\0/1/8\0/1/8\0/1/8\0/1/8\0/1/8\0/1/8\0/1/8\0/1/8\0/1/8-|
|----------------------------------------------------------|

|----------------------------------------------------------|
|-10\0/3/12\0/3/10\0/3/15\0/3/15\0/3/15\0/3/15\0/3/15\0/3/-|
|----------------------------------------------------------|

|------------------------------------------------------|
|-/8\0/1/8\0/1/8\0/1/8\0/1/10\1\0/12\1\0/10\1\0/12\1\0-|
|------------------------------------------------------|

[ Tab from: http://www.guitartabs.cc/tabs/g/glassjaw/ry_rys_song_tab.html ]
Chorus - Guitar 1
|---------------------------------------------------------0-------------0-|
|---0--0-0-0--0-0-0--0-0-0--0--0-0-0--0-0-0--0-0-0--------0-------------0-|
|---0--0-0-0--0-0-0--0-0-0--0--0-0-0--0-0-0--0-0-0--------0-------------0-|
|-8-7--7-7-7--7-7-7--7-7-7--5--5-5-5--5-5-5--5-5-5--3--3--3-------3--3--3-|
|-8-7--7-7-7--7-7-7--7-7-7--3--3-3-3--3-3-3--3-3-3--3--3--3-------3--3--3-|
|-6-5--5-5-5--5-5-5--5-5-5--------------------------1--1--1-------1--1--1-|


Chorus Solo - Guitar 1 [distortion/chorus] (barely noticeable]
E|-12-12-12-12-12-12-12-12-12-12-12-12-12-15-15-15-15-15-15-15-15-12-12-12-12-12-12-|
B|----------------------------------------------------------------------------------|

E|----------------------------------------------------------------------------------|
B|-15-15-15-15-15-15-15-15-13-13-13-13-13-13-13-13-12-12-12-12-12-12-12-12-12-12-12-|


Chorus - Guitar 2
|---------------------------------------------------------0--------------------|
|---0--0-0-0--0-0-0--0-0-0--------------------------------0--------------------|
|---0--0-0-0--0-0-0--0-0-0--------4/5\4-------4/5\4-------0-----7s9-9-9-9s10s9-|
|-8-7--7-7-7--7-7-7--7-7-7----5-----------5---------3--3--3--------------------|
|-8-7--7-7-7--7-7-7--7-7-7--3---3-------3---3-------3--3--3-----5s7-7-7-7ss8s7-|
|-6-5--5-5-5--5-5-5--5-5-5--------------------------1--1--1--------------------|


Interlude [distortion] (vary with palm muting sometimes)
|-------------------------------------------------------------|
|-------------------------------------------------------------|
|----------------------------------5-5-5----------------------|
|-8-7--7-7-7--7-7-7--7-7-7--5-5-5--5-5-5--3-3-3--3-3-3--8-8-8-|
|-8-7--7-7-7--7-7-7--7-7-7--5-5-5--3-3-3--3-3-3--3-3-3--8-8-8-|
|-6-5--5-5-5--5-5-5--5-5-5--3-3-3---------1-1-1--1-1-1--6-6-6-|

|-------------------------------------------|-----|
|-------------------------------------------|-----|
|-------------------------------------------|-----|
|-7--7-7-7--7-7-7--2-2-2----3--3-3-3--3-3-3-|-8-7-|
|-7--7-7-7--7-7-7--2-2-2----3--3-3-3--3-3-3-|-8-7-|
|-5--5-5-5--5-5-5--0-0-0----1--1-1-1--1-1-1-|-6-5-|


Interlude Solo - Guitar 1 [distortion/chorus]
E|-12-(32 times)-13-13-13-13-12-(29 times)-13-(then repeat all then end like)-13-12-|


Fill
|--------------------|
|--------------------|
|--------------------|
|------3-------------|
|------3-------------|
|-(14)s1-(pickscrape-|


Riff Over Last Chorus
|-12-------15-------12-------13-------12-------15-------12-------13-------|
|----13-------13-------13-------13-------13-------13-------13-------13----|
|-------14-------14-------14-------14-------12-------12-------12-------12-|
|-------------------------------------------------------------------------|
|-------------------------------------------------------------------------|
|-------------------------------------------------------------------------|

|-12-------13-------12-------13-------12-------13-------12-------13-------|
|----13-------13-------13-------13-------13-------13-------13-------13----|
|-------10-------10-------10-------10-------10-------10-------10-------10-|
|-------------------------------------------------------------------------|
|-------------------------------------------------------------------------|
|-------------------------------------------------------------------------|

For ending just do that riff above just the 2nd part w/some weird, funk ass distortion.


If you have any questions or comments, contact me via e-mail bmskate@hotmail.com or on Instant Messenger 
DEFreak13
Comments