Glassjaw - Pretty Lush Chords & Tabs

 

Pretty Lush Chords & Tabs

Glassjaw Chords & Tabs

Version: 1 Type: Tab 0 ratings
1 star 2 stars 3 stars 4 stars 5 stars
comments

Pretty Lush Tab

Glass JAw
Pretty Lush

Guitar 1
                                       
E||---------------------|--------------|
B||---------------------|--------------|
G||---------------------|--------------|
D||---------------------|--------------|
A||--0----2------3------|--5------6----|
D||--0----2------3------|--5------6----|


                                                                  
--------------------------------|--------------------------------|
--------------------------------|--------------------------------|
--------------------------------|--------------------------------|
--------------------------------|--------------------------------|
--0---0---0------0---0---0------|--0---0---0------0---0---0------|
--0---0---0------0---0---0------|--0---0---0------0---0---0------|


                                                                      
--------------------------------|---------------------|--------------|
--------------------------------|---------------------|--------------|
--------------------------------|---------------------|--------------|
--------------------------------|---------------------|--------------|
--0---0---0------0---0---0------|--0----2------3------|--5------6----|
--0---0---0------0---0---0------|--0----2------3------|--5------6----|


                                                                  
--------------------------------|--------------------------------|
--------------------------------|--------------------------------|
--------------------------------|--------------------------------|
--------------------------------|--------------------------------|
--0---0---0------0---0---0------|--0---0---0------0---0---0------|
--0---0---0------0---0---0------|--0---0---0------0---0---0------|


                                                                      
--------------------------------|---------------------|--------------|
--------------------------------|---------------------|--------------|
--------------------------------|---------------------|--------------|
--------------------------------|---------------------|--------------|
--0---0---0------0---0---0------|--0----2------3------|--5------6----|
--0---0---0------0---0---0------|--0----2------3------|--5------6----|


                                                                  
--------------------------------|--------------------------------|
--------------------------------|--------------------------------|
--------------------------------|--------------------------------|
--------------------------------|--------------------------------|
--0---0---0------0---0---0------|--0---0---0------0---0---0------|
--0---0---0------0---0---0------|--0---0---0------0---0---0------|


                                                                      
--------------------------------|---------------------|--------------|
--------------------------------|---------------------|--------------|
--------------------------------|---------------------|--------------|
--------------------------------|---------------------|--------------|
--0---0---0------0---0---0------|--0----2------3------|--5------6----|
--0---0---0------0---0---0------|--0----2------3------|--5------6----|


                                                                  
--------------------------------|--------------------------------|
--------------------------------|--------------------------------|
--------------------------------|--------------------------------|
--------------------------------|--------------------------------|
--0---0---0------0---0---0------|--0---0---0------0---0---0------|
--0---0---0------0---0---0------|--0---0---0------0---0---0------|


                                                                      
--------------------------------|---------------------|--------------|
--------------------------------|---------------------|--------------|
--------------------------------|---------------------|--------------|
--------------------------------|---------------------|--------------|
--0---0---0------0---0---0------|--0----2------3------|--5------6----|
--0---0---0------0---0---0------|--0----2------3------|--5------6----|


                                                          
---------------------|--------------|--------------------|
---------------------|--------------|-----------8--------|
---------------------|--------------|--7-----------------|
---------------------|--------------|--------------------|
--0----2------3------|--5------6----|--------------------|
--0----2------3------|--5------6----|--------------------|


                                                               
--5-----------------|--------------------|--------------------|
---------------8----|-------------8------|-----------8--------|
--------------------|------7-------------|--7-----------------|
--------------------|--------------------|--------------------|
--------------------|--------------------|--------------------|
--------------------|--------------------|--------------------|


                                          
--5-----------------|--------------------|
---------------8----|-------------8------|
--------------------|------7-------------|
--------------------|--------------------|
--------------------|--------------------|
--------------------|--------------------|


                                                                      
--1---1---1---1---1---1---1---1---|--1---1---1---1---1---1---1---1---|
--4---4---4---4---4---4---4---4---|--4---4---4---4---4---4---4---4---|
--3---3---3---3---3---3---3---3---|--3---3---3---3---3---3---3---3---|
--1---1---1---1---1---1---1---1---|--1---1---1---1---1---1---1---1---|
--1---1---1---1---1---1---1---1---|--1---1---1---1---1---1---1---1---|
--1---1---1---1---1---1---1---1---|--1---1---1---1---1---1---1---1---|


                                                                      
--1---1---1---1---1---1---1---1---|--1---1---1---1---1---1---1---1---|
--4---4---4---4---4---4---4---4---|--4---4---4---4---4---4---3---4---|
--3---3---3---3---3---3---3---3---|--3---3---3---3---3---3---3---3---|
--1---1---1---1---1---1---1---1---|--1---1---1---1---1---1---1---1---|
--1---1---1---1---1---1---1---1---|--1---1---1---1---1---1---1---1---|
--1---1---1---1---1---1---1---1---|--1---1---1---1---1---1---1---1---|


                                                               
--------------------|--5-----------------|--------------------|
-----------8--------|---------------8----|-------------8------|
--7-----------------|--------------------|------7-------------|
--------------------|--------------------|--------------------|
--------------------|--------------------|--------------------|
--------------------|--------------------|--------------------|


                                                               
--------------------|--5-----------------|--------------------|
-----------8--------|---------------8----|-------------8------|
--7-----------------|--------------------|------7-------------|
--------------------|--------------------|--------------------|
--------------------|--------------------|--------------------|
--------------------|--------------------|--------------------|


                                                                      
--1---1---1---1---1---1---1---1---|--1---1---1---1---1---1---1---1---|
--4---4---4---4---4---4---4---4---|--4---4---4---4---4---4---4---4---|
--3---3---3---3---3---3---3---3---|--3---3---3---3---3---3---3---3---|
--1---1---1---1---1---1---1---1---|--1---1---1---1---1---1---1---1---|
--1---1---1---1---1---1---1---1---|--1---1---1---1---1---1---1---1---|
--1---1---1---1---1---1---1---1---|--1---1---1---1---1---1---1---1---|


                                                                   
--1---1---1---1---1---1---1---1---|--1---1---1---1---1------------|
--4---4---4---4---4---4---4---4---|--4---4---4---4---4------------|
--3---3---3---3---3---3---3---3---|--3---3---3---3---3------------|
--1---1---1---1---1---1---1---1---|--1---1---1---1---1------------|
--1---1---1---1---1---1---1---1---|--1---1---1---1---1------------|
--1---1---1---1---1---1---1---1---|--1---1---1---1---1------------|


                                                                      
----------------------------------|----------------------------------|
--8---8---8---8---8---8---8---8---|--8---8---8---8---8---8---8---8---|
--7---7---7---7---7---7---7---7---|--7---7---7---7---7---7---7---7---|
--5---5---5---5---5---5---5---5---|--5---5---5---5---5---5---5---5---|
--5---5---5---5---5---5---5---5---|--5---5---5---5---5---5---5---5---|
--5---5---5---5---5---5---5---5---|--5---5---5---5---5---5---5---5---|


                                                                      
----------------------------------|----------------------------------|
--4---4---4---4---4---4---4---4---|--4---4---4---4---4---4---4---4---|
--3---3---3---3---3---3---3---3---|--3---3---3---3---3---3---3---3---|
--1---1---1---1---1---1---1---1---|--1---1---1---1---1---1---1---1---|
--1---1---1---1---1---1---1---1---|--1---1---1---1---1---1---1---1---|
--1---1---1---1---1---1---1---1---|--1---1---1---1---1---1---1---1---|


                                                                      
----------------------------------|----------------------------------|
--8---8---8---8---8---8---8---8---|--8---8---8---8---8---8---8---8---|
--7---7---7---7---7---7---7---7---|--7---7---7---7---7---7---7---7---|
--5---5---5---5---5---5---5---5---|--5---5---5---5---5---5---5---5---|
--5---5---5---5---5---5---5---5---|--5---5---5---5---5---5---5---5---|
--5---5---5---5---5---5---5---5---|--5---5---5---5---5---5---5---5---|


                                                                    
----------------------------------|--------------------------------|
--4---4---4---4---4---4---4---4---|--4---4---4---4-----------------|
--3---3---3---3---3---3---3---3---|--3---3---3---3-----------------|
--1---1---1---1---1---1---1---1---|--1---1---1---1-----------------|
--1---1---1---1---1---1---1---1---|--1---1---1---1---0---3---------|
--1---1---1---1---1---1---1---1---|--1---1---1---1---0---3---------|


                                                                      
----------------------------------|----------------------------------|
--8---8---8---8---8---8---8---8---|--8---8---8---8---8---8---8---8---|
--7---7---7---7---7---7---7---7---|--7---7---7---7---7---7---7---7---|
--5---5---5---5---5---5---5---5---|--5---5---5---5---5---5---5---5---|
--5---5---5---5---5---5---5---5---|--5---5---5---5---5---5---5---5---|
--5---5---5---5---5---5---5---5---|--5---5---5---5---5---5---5---5---|


                                                                    
----------------------------------|--------------------------------|
--4---4---4---4---4---4---4---4---|--4---4---4---4-----------------|
--3---3---3---3---3---3---3---3---|--3---3---3---3-----------------|
--1---1---1---1---1---1---1---1---|--1---1---1---1-----------------|
--1---1---1---1---1---1---1---1---|--1---1---1---1---0---3---------|
--1---1---1---1---1---1---1---1---|--1---1---1---1---0---3---------|


                                                                      
----------------------------------|----------------------------------|
--8---8---8---8---8---8---8---8---|--8---8---8---8---8---8---8---8---|
--7---7---7---7---7---7---7---7---|--7---7---7---7---7---7---7---7---|
--5---5---5---5---5---5---5---5---|--5---5---5---5---5---5---5---5---|
--5---5---5---5---5---5---5---5---|--5---5---5---5---5---5---5---5---|
--5---5---5---5---5---5---5---5---|--5---5---5---5---5---5---5---5---|


                                                         
----------------------------------|---------------------|
--4---4---4---4---4---4---4---4---|---------------------|
--3---3---3---3---3---3---3---3---|---------------------|
--1---1---1---1---1---1---1---1---|---------------------|
--1---1---1---1---1---1---1---1---|--0----2------3------|
--1---1---1---1---1---1---1---1---|--0----2------3------|


                                                
--------------|--------------------------------|
--------------|--------------------------------|
--------------|--------------------------------|
--------------|--------------------------------|
--5------6----|--0---0---0------0---0---0------|
--5------6----|--0---0---0------0---0---0------|


                                                                  
--------------------------------|--------------------------------|
--------------------------------|--------------------------------|
--------------------------------|--------------------------------|
--------------------------------|--------------------------------|
--0---0---0------0---0---0------|--0---0---0------0---0---0------|
--0---0---0------0---0---0------|--0---0---0------0---0---0------|


                                                                      
---------------------|--------------|--------------------------------|
---------------------|--------------|--------------------------------|
---------------------|--------------|--------------------------------|
---------------------|--------------|--------------------------------|
--0----2------3------|--5------6----|--0---0---0------0---0---0------|
--0----2------3------|--5------6----|--0---0---0------0---0---0------|


                                                                  
--------------------------------|--------------------------------|
--------------------------------|--------------------------------|
--------------------------------|--------------------------------|
--------------------------------|--------------------------------|
--0---0---0------0---0---0------|--0---0---0------0---0---0------|
--0---0---0------0---0---0------|--0---0---0------0---0---0------|


                                                                      
---------------------|--------------|--------------------------------|
---------------------|--------------|--------------------------------|
---------------------|--------------|--------------------------------|
---------------------|--------------|--------------------------------|
--0----2------3------|--5------6----|--0---0---0------0---0---0------|
--0----2------3------|--5------6----|--0---0---0------0---0---0------|


                                                                  
--------------------------------|--------------------------------|
--------------------------------|--------------------------------|
--------------------------------|--------------------------------|
--------------------------------|--------------------------------|
--0---0---0------0---0---0------|--0---0---0------0---0---0------|
--0---0---0------0---0---0------|--0---0---0------0---0---0------|


                                                                      
---------------------|--------------|--------------------------------|
---------------------|--------------|--------------------------------|
---------------------|--------------|--------------------------------|
---------------------|--------------|--------------------------------|
--0----2------3------|--5------6----|--0---0---0------0---0---0------|
--0----2------3------|--5------6----|--0---0---0------0---0---0------|


                                                                  
--------------------------------|--------------------------------|
--------------------------------|--------------------------------|
--------------------------------|--------------------------------|
--------------------------------|--------------------------------|
--0---0---0------0---0---0------|--0---0---0------0---0---0------|
--0---0---0------0---0---0------|--0---0---0------0---0---0------|


                                                                  
---------------------|--------------|---------------------|------|
---------------------|--------------|---------------------|------|
---------------------|--------------|---------------------|------|
---------------------|--------------|---------------------|------|
--0----2------3------|--5------6----|--0---2---3----------|------|
--0----2------3------|--5------6----|--0---2---3----------|------|


                                                               
--------------------|--5-----------------|--------------------|
-----------8--------|---------------8----|-------------8------|
--7-----------------|--------------------|------7-------------|
--------------------|--------------------|--------------------|
--------------------|--------------------|--------------------|
--------------------|--------------------|--------------------|


                                                               
--------------------|--5-----------------|--------------------|
-----------8--------|---------------8----|-------------8------|
--7-----------------|--------------------|------7-------------|
--------------------|--------------------|--------------------|
--------------------|--------------------|--------------------|
--------------------|--------------------|--------------------|


                                                                      
--1---1---1---1---1---1---1---1---|--1---1---1---1---1---1---1---1---|
--4---4---4---4---4---4---4---4---|--4---4---4---4---4---4---4---4---|
--3---3---3---3---3---3---3---3---|--3---3---3---3---3---3---3---3---|
--1---1---1---1---1---1---1---1---|--1---1---1---1---1---1---1---1---|
--1---1---1---1---1---1---1---1---|--1---1---1---1---1---1---1---1---|
--1---1---1---1---1---1---1---1---|--1---1---1---1---1---1---1---1---|


                                                                      
--1---1---1---1---1---1---1---1---|--1---1---1---1---1---1---1---1---|
--4---4---4---4---4---4---4---4---|--4---4---4---4---4---4---3---4---|
--3---3---3---3---3---3---3---3---|--3---3---3---3---3---3---3---3---|
--1---1---1---1---1---1---1---1---|--1---1---1---1---1---1---1---1---|
--1---1---1---1---1---1---1---1---|--1---1---1---1---1---1---1---1---|
--1---1---1---1---1---1---1---1---|--1---1---1---1---1---1---1---1---|


                                                               
--------------------|--5-----------------|--------------------|
-----------8--------|---------------8----|-------------8------|
--7-----------------|--------------------|------7-------------|
--------------------|--------------------|--------------------|
--------------------|--------------------|--------------------|
--------------------|--------------------|--------------------|


                                                               
--------------------|--5-----------------|--------------------|
-----------8--------|---------------8----|-------------8------|
--7-----------------|--------------------|------7-------------|
--------------------|--------------------|--------------------|
--------------------|--------------------|--------------------|
--------------------|--------------------|--------------------|


                                                                      
--1---1---1---1---1---1---1---1---|--1---1---1---1---1---1---1---1---|
--4---4---4---4---4---4---4---4---|--4---4---4---4---4---4---4---4---|
--3---3---3---3---3---3---3---3---|--3---3---3---3---3---3---3---3---|
--1---1---1---1---1---1---1---1---|--1---1---1---1---1---1---1---1---|
--1---1---1---1---1---1---1---1---|--1---1---1---1---1---1---1---1---|
--1---1---1---1---1---1---1---1---|--1---1---1---1---1---1---1---1---|


                                                                   
--1---1---1---1---1---1---1---1---|--1---1---1---1---1------------|
--4---4---4---4---4---4---4---4---|--4---4---4---4---4------------|
--3---3---3---3---3---3---3---3---|--3---3---3---3---3------------|
--1---1---1---1---1---1---1---1---|--1---1---1---1---1------------|
--1---1---1---1---1---1---1---1---|--1---1---1---1---1------------|
--1---1---1---1---1---1---1---1---|--1---1---1---1---1------------|


                                                                      
----------------------------------|----------------------------------|
--8---8---8---8---8---8---8---8---|--8---8---8---8---8---8---8---8---|
--7---7---7---7---7---7---7---7---|--7---7---7---7---7---7---7---7---|
--5---5---5---5---5---5---5---5---|--5---5---5---5---5---5---5---5---|
--5---5---5---5---5---5---5---5---|--5---5---5---5---5---5---5---5---|
--5---5---5---5---5---5---5---5---|--5---5---5---5---5---5---5---5---|


                                                                      
----------------------------------|----------------------------------|
--4---4---4---4---4---4---4---4---|--4---4---4---4---4---4---4---4---|
--3---3---3---3---3---3---3---3---|--3---3---3---3---3---3---3---3---|
--1---1---1---1---1---1---1---1---|--1---1---1---1---1---1---1---1---|
--1---1---1---1---1---1---1---1---|--1---1---1---1---1---1---1---1---|
--1---1---1---1---1---1---1---1---|--1---1---1---1---1---1---1---1---|


                                                                      
----------------------------------|----------------------------------|
--8---8---8---8---8---8---8---8---|--8---8---8---8---8---8---8---8---|
--7---7---7---7---7---7---7---7---|--7---7---7---7---7---7---7---7---|
--5---5---5---5---5---5---5---5---|--5---5---5---5---5---5---5---5---|
--5---5---5---5---5---5---5---5---|--5---5---5---5---5---5---5---5---|
--5---5---5---5---5---5---5---5---|--5---5---5---5---5---5---5---5---|


                                                                    
----------------------------------|--------------------------------|
--4---4---4---4---4---4---4---4---|--4---4---4---4-----------------|
--3---3---3---3---3---3---3---3---|--3---3---3---3-----------------|
--1---1---1---1---1---1---1---1---|--1---1---1---1-----------------|
--1---1---1---1---1---1---1---1---|--1---1---1---1---0---3---------|
--1---1---1---1---1---1---1---1---|--1---1---1---1---0---3---------|


                                                                      
----------------------------------|----------------------------------|
--8---8---8---8---8---8---8---8---|--8---8---8---8---8---8---8---8---|
--7---7---7---7---7---7---7---7---|--7---7---7---7---7---7---7---7---|
--5---5---5---5---5---5---5---5---|--5---5---5---5---5---5---5---5---|
--5---5---5---5---5---5---5---5---|--5---5---5---5---5---5---5---5---|
--5---5---5---5---5---5---5---5---|--5---5---5---5---5---5---5---5---|


                                                                    
----------------------------------|--------------------------------|
--4---4---4---4---4---4---4---4---|--4---4---4---4-----------------|
--3---3---3---3---3---3---3---3---|--3---3---3---3-----------------|
--1---1---1---1---1---1---1---1---|--1---1---1---1-----------------|
--1---1---1---1---1---1---1---1---|--1---1---1---1---0---3---------|
--1---1---1---1---1---1---1---1---|--1---1---1---1---0---3---------|


                                                                      
----------------------------------|----------------------------------|
--8---8---8---8---8---8---8---8---|--8---8---8---8---8---8---8---8---|
--7---7---7---7---7---7---7---7---|--7---7---7---7---7---7---7---7---|
--5---5---5---5---5---5---5---5---|--5---5---5---5---5---5---5---5---|
--5---5---5---5---5---5---5---5---|--5---5---5---5---5---5---5---5---|
--5---5---5---5---5---5---5---5---|--5---5---5---5---5---5---5---5---|


                                                         
----------------------------------|---------------------|
--4---4---4---4---4---4---4---4---|---------------------|
--3---3---3---3---3---3---3---3---|---------------------|
--1---1---1---1---1---1---1---1---|---------------------|
--1---1---1---1---1---1---1---1---|--0----2------3------|
--1---1---1---1---1---1---1---1---|--0----2------3------|


                                                    
--------------|---------------------|--------------|
--------------|---------------------|--------------|
--------------|---------------------|--------------|
--------------|---------------------|--------------|
--5------6----|--0----2------3------|--5------6----|
--5------6----|--0----2------3------|--5------6----|


                                                                     
---------------------|------------|--------------------|------------|
---------------------|------------|--------------------|------------|
---------------------|------------|--------------------|------------|
---------------------|------------|--------------------|------------|
--0---2---3----------|------------|--0---2-------------|------------|
--0---2---3----------|------------|--0---2-------------|------------|


                                                                      
----------------------|-----------|----------------------|-----------|
----------------------|-----------|----------------------|-----------|
----------------------|-----------|----------------------|-----------|
----------------------|-----------|----------------------|-----------|
--0---2------3------5-|------6----|--0---2---3------6----|----5------|
--0---2------3------5-|------6----|--0---2---3------6----|----5------|


                                                                      
----------------------|-----------|----------------------|-----------|
----------------------|-----------|----------------------|-----------|
----------------------|-----------|----------------------|-----------|
----------------------|-----------|----------------------|-----------|
--0---2------3------5-|------6----|--0---2---3------6----|----5------|
--0---2------3------5-|------6----|--0---2---3------6----|----5------|


                                                                      
----------------------|-----------|----------------------|-----------|
----------------------|-----------|----------------------|-----------|
----------------------|-----------|----------------------|-----------|
----------------------|-----------|----------------------|-----------|
--0---2------3------5-|------6----|--0---2---3------6----|----5------|
--0---2------3------5-|------6----|--0---2---3------6----|----5------|


                                                                      
----------------------|-----------|----------------------|-----------|
----------------------|-----------|----------------------|-----------|
----------------------|-----------|----------------------|-----------|
----------------------|-----------|----------------------|-----------|
--0---2------3------5-|------6----|--0---2---3------6----|----5------|
--0---2------3------5-|------6----|--0---2---3------6----|----5------|


                                                                      
----------------------|-----------|----------------------|-----------|
----------------------|-----------|----------------------|-----------|
----------------------|-----------|----------------------|-----------|
----------------------|-----------|----------------------|-----------|
--0---2------3------5-|------6----|--0---2---3------6----|----5------|
--0---2------3------5-|------6----|--0---2---3------6----|----5------|


                                                                      
----------------------|-----------|----------------------|-----------|
----------------------|-----------|----------------------|-----------|
----------------------|-----------|----------------------|-----------|
----------------------|-----------|----------------------|-----------|
--0---2------3------5-|------6----|--0---2---3------6----|----5------|
--0---2------3------5-|------6----|--0---2---3------6----|----5------|


                                                                      
----------------------|-----------|----------------------|-----------|
----------------------|-----------|----------------------|-----------|
----------------------|-----------|----------------------|-----------|
----------------------|-----------|----------------------|-----------|
--0---2------3------5-|------6----|--0---2---3------6----|----5------|
--0---2------3------5-|------6----|--0---2---3------6----|----5------|


                                                                
----------------------|-----------|---------------------|------|
----------------------|-----------|---------------------|------|
----------------------|-----------|---------------------|------|
----------------------|-----------|---------------------|------|
--0---2------3------5-|------6----|--0---2---3----------|------|
--0---2------3------5-|------6----|--0---2---3----------|------|


                                                                      
----------------------------------|----------------------------------|
--8---8---8---8---8---8---8---8---|--8---8---8---8---8---8---8---8---|
--7---7---7---7---7---7---7---7---|--7---7---7---7---7---7---7---7---|
--5---5---5---5---5---5---5---5---|--5---5---5---5---5---5---5---5---|
--5---5---5---5---5---5---5---5---|--5---5---5---5---5---5---5---5---|
--5---5---5---5---5---5---5---5---|--5---5---5---5---5---5---5---5---|


                                                                      
----------------------------------|----------------------------------|
--4---4---4---4---4---4---4---4---|--4---4---4---4---4---4---4---4---|
--3---3---3---3---3---3---3---3---|--3---3---3---3---3---3---3---3---|
--1---1---1---1---1---1---1---1---|--1---1---1---1---1---1---1---1---|
--1---1---1---1---1---1---1---1---|--1---1---1---1---1---1---1---1---|
--1---1---1---1---1---1---1---1---|--1---1---1---1---1---1---1---1---|


                                                                      
----------------------------------|----------------------------------|
--8---8---8---8---8---8---8---8---|--8---8---8---8---8---8---8---8---|
--7---7---7---7---7---7---7---7---|--7---7---7---7---7---7---7---7---|
--5---5---5---5---5---5---5---5---|--5---5---5---5---5---5---5---5---|
--5---5---5---5---5---5---5---5---|--5---5---5---5---5---5---5---5---|
--5---5---5---5---5---5---5---5---|--5---5---5---5---5---5---5---5---|


                                                                    
----------------------------------|--------------------------------|
--4---4---4---4---4---4---4---4---|--4---4---4---4-----------------|
--3---3---3---3---3---3---3---3---|--3---3---3---3-----------------|
--1---1---1---1---1---1---1---1---|--1---1---1---1-----------------|
--1---1---1---1---1---1---1---1---|--1---1---1---1---0---3---------|
--1---1---1---1---1---1---1---1---|--1---1---1---1---0---3---------|


                                                                      
----------------------------------|----------------------------------|
--8---8---8---8---8---8---8---8---|--8---8---8---8---8---8---8---8---|
--7---7---7---7---7---7---7---7---|--7---7---7---7---7---7---7---7---|
--5---5---5---5---5---5---5---5---|--5---5---5---5---5---5---5---5---|
--5---5---5---5---5---5---5---5---|--5---5---5---5---5---5---5---5---|
--5---5---5---5---5---5---5---5---|--5---5---5---5---5---5---5---5---|


                                                                    
----------------------------------|--------------------------------|
--4---4---4---4---4---4---4---4---|--4---4---4---4-----------------|
--3---3---3---3---3---3---3---3---|--3---3---3---3-----------------|
--1---1---1---1---1---1---1---1---|--1---1---1---1-----------------|
--1---1---1---1---1---1---1---1---|--1---1---1---1---0---3---------|
--1---1---1---1---1---1---1---1---|--1---1---1---1---0---3---------|


                                                                      
----------------------------------|----------------------------------|
--8---8---8---8---8---8---8---8---|--8---8---8---8---8---8---8---8---|
--7---7---7---7---7---7---7---7---|--7---7---7---7---7---7---7---7---|
--5---5---5---5---5---5---5---5---|--5---5---5---5---5---5---5---5---|
--5---5---5---5---5---5---5---5---|--5---5---5---5---5---5---5---5---|
--5---5---5---5---5---5---5---5---|--5---5---5---5---5---5---5---5---|


                                                         
----------------------------------|---------------------|
--4---4---4---4---4---4---4---4---|---------------------|
--3---3---3---3---3---3---3---3---|---------------------|
--1---1---1---1---1---1---1---1---|---------------------|
--1---1---1---1---1---1---1---1---|--0---2---3----------|
--1---1---1---1---1---1---1---1---|--0---2---3----------|


                
--------------||
--------------||
--------------||
--------------||
--------------||
--------------||



guitar 2
                                              
E||-------|------|--------------------------------|
B||-------|------|--------------------------------|
G||-------|------|--8---8---8------8---8---8------|
D||-------|------|--0---0---0------0---0---0------|
A||--0----|------|--------------------------------|
D||--0----|------|--------------------------------|

[ Tab from: http://www.guitartabs.cc/tabs/g/glassjaw/pretty_lush_tab.html ]
                                                                  
--------------------------------|--------------------------------|
--------------------------------|--------------------------------|
--8---8---8------8---8---8------|--8---8---8------8---8---8------|
--0---0---0------0---0---0------|--0---0---0------0---0---0------|
--------------------------------|--------------------------------|
--------------------------------|--------------------------------|


                                                                      
---------------------|--------------|--------------------------------|
---------------------|--------------|--------------------------------|
---------------------|--------------|--------------------------------|
---------------------|--------------|--------------------------------|
--0----2------3------|--5------6----|--0---0---0------0---0---0------|
--0----2------3------|--5------6----|--0---0---0------0---0---0------|


                                                                  
--------------------------------|--------------------------------|
--------------------------------|--------------------------------|
--------------------------------|--------------------------------|
--------------------------------|--------------------------------|
--0---0---0------0---0---0------|--0---0---0------0---0---0------|
--0---0---0------0---0---0------|--0---0---0------0---0---0------|


                                                                      
---------------------|--------------|--------------------------------|
---------------------|--------------|--------------------------------|
---------------------|--------------|--8---8---8------8---8---8------|
---------------------|--------------|--0---0---0------0---0---0------|
--0----2------3------|--5------6----|--------------------------------|
--0----2------3------|--5------6----|--------------------------------|


                                                                  
--------------------------------|--------------------------------|
--------------------------------|--------------------------------|
--8---8---8------8---8---8------|--8---8---8------8---8---8------|
--0---0---0------0---0---0------|--0---0---0------0---0---0------|
--------------------------------|--------------------------------|
--------------------------------|--------------------------------|


                                                                      
---------------------|--------------|--------------------------------|
---------------------|--------------|--------------------------------|
---------------------|--------------|--------------------------------|
---------------------|--------------|--------------------------------|
--0----2------3------|--5------6----|--0---0---0------0---0---0------|
--0----2------3------|--5------6----|--0---0---0------0---0---0------|


                                                                  
--------------------------------|--------------------------------|
--------------------------------|--------------------------------|
--------------------------------|--------------------------------|
--------------------------------|--------------------------------|
--0---0---0------0---0---0------|--0---0---0------0---0---0------|
--0---0---0------0---0---0------|--0---0---0------0---0---0------|


                                                                  
---------------------|--------------|---------------------|------|
---------------------|--------------|---------------------|------|
---------------------|--------------|---------------------|------|
---------------------|--------------|---------------------|------|
--0----2------3------|--5------6----|--0---2---3----------|------|
--0----2------3------|--5------6----|--0---2---3----------|------|


                                                           
--5----------------|--5----------------|------------------|
--8----------------|--8----------------|------------------|
--7----------------|--7----------------|------------------|
--5----------------|--5----------------|------------------|
--5----------------|--5----------------|------------------|
--5----------------|--5----------------|------------------|


                                                           
--5----------------|--5----------------|------------------|
--8----------------|--8----------------|------------------|
--7----------------|--7----------------|------------------|
--5----------------|--5----------------|------------------|
--5----------------|--5----------------|------------------|
--5----------------|--5----------------|------------------|


                                   
----------------------------------|
----------------------------------|
--8---8---8---8---8---8---8---8---|
----------------------------------|
--6---6---6---6---6---6---6---6---|
----------------------------------|


                                           
------------------------------------------|
------------------------------------------|
--10---10---10---10---10---10---10---10---|
------------------------------------------|
--8----8----8----8----8----8----8----8----|
------------------------------------------|


                                           
------------------------------------------|
------------------------------------------|
--12---12---12---12---12---12---12---12---|
------------------------------------------|
--10---10---10---10---10---10---10---10---|
------------------------------------------|


                                                               
------------------------------------------|--5----------------|
------------------------------------------|--8----------------|
--12---12---12---12---12---12---12---12---|--7----------------|
------------------------------------------|--5----------------|
--10---10---10---10---10---10---10---10---|--5----------------|
------------------------------------------|--5----------------|


                                                           
--5----------------|------------------|--5----------------|
--8----------------|------------------|--8----------------|
--7----------------|------------------|--7----------------|
--5----------------|------------------|--5----------------|
--5----------------|------------------|--5----------------|
--5----------------|------------------|--5----------------|


                                       
--5----------------|------------------|
--8----------------|------------------|
--7----------------|------------------|
--5----------------|------------------|
--5----------------|------------------|
--5----------------|------------------|


                                   
----------------------------------|
----------------------------------|
--8---8---8---8---8---8---8---8---|
----------------------------------|
--6---6---6---6---6---6---6---6---|
----------------------------------|


                                           
------------------------------------------|
------------------------------------------|
--10---10---10---10---10---10---10---10---|
------------------------------------------|
--8----8----8----8----8----8----8----8----|
------------------------------------------|


                                           
------------------------------------------|
------------------------------------------|
--12---12---12---12---12---12---12---12---|
------------------------------------------|
--10---10---10---10---10---10---10---10---|
------------------------------------------|


                                     
------------------------------------|
------------------------------------|
--12---12---12---12---12------------|
------------------------------------|
--10---10---10---10---10------------|
------------------------------------|


                                                                      
----------------------------------|----------------------------------|
--8---8---8---8---8---8---8---8---|--8---8---8---8---8---8---8---8---|
--7---7---7---7---7---7---7---7---|--7---7---7---7---7---7---7---7---|
--5---5---5---5---5---5---5---5---|--5---5---5---5---5---5---5---5---|
--5---5---5---5---5---5---5---5---|--5---5---5---5---5---5---5---5---|
--5---5---5---5---5---5---5---5---|--5---5---5---5---5---5---5---5---|


                                                                      
----------------------------------|----------------------------------|
--4---4---4---4---4---4---4---4---|--4---4---4---4---4---4---4---4---|
--3---3---3---3---3---3---3---3---|--3---3---3---3---3---3---3---3---|
--1---1---1---1---1---1---1---1---|--1---1---1---1---1---1---1---1---|
--1---1---1---1---1---1---1---1---|--1---1---1---1---1---1---1---1---|
--1---1---1---1---1---1---1---1---|--1---1---1---1---1---1---1---1---|


                                                                      
----------------------------------|----------------------------------|
--8---8---8---8---8---8---8---8---|--8---8---8---8---8---8---8---8---|
--7---7---7---7---7---7---7---7---|--7---7---7---7---7---7---7---7---|
--5---5---5---5---5---5---5---5---|--5---5---5---5---5---5---5---5---|
--5---5---5---5---5---5---5---5---|--5---5---5---5---5---5---5---5---|
--5---5---5---5---5---5---5---5---|--5---5---5---5---5---5---5---5---|


                                                                    
----------------------------------|--------------------------------|
--4---4---4---4---4---4---4---4---|--4---4---4---4-----------------|
--3---3---3---3---3---3---3---3---|--3---3---3---3-----------------|
--1---1---1---1---1---1---1---1---|--1---1---1---1-----------------|
--1---1---1---1---1---1---1---1---|--1---1---1---1---0---3---------|
--1---1---1---1---1---1---1---1---|--1---1---1---1---0---3---------|


                                           
------------------------------------------|
-----------------11---11---11---10---10---|
------------------------------------------|
--12---12---12----------------------------|
------------------------------------------|
------------------------------------------|


                                           
------------------------------------------|
--10---11---11---11---10---10---11---11---|
------------------------------------------|
------------------------------------------|
------------------------------------------|
------------------------------------------|


                                           
------------------------------------------|
-----------------11---11---11---10---10---|
------------------------------------------|
--13---13---13----------------------------|
------------------------------------------|
------------------------------------------|


                                           
------------------------------------------|
--10---11---11---11---10---10---11---11---|
------------------------------------------|
------------------------------------------|
------------------------------------------|
------------------------------------------|


                                           
------------------------------------------|
-----------------11---11---11---10---10---|
------------------------------------------|
--12---12---12----------------------------|
------------------------------------------|
------------------------------------------|


                                           
------------------------------------------|
--10---11---11---11---10---10---11---11---|
------------------------------------------|
------------------------------------------|
------------------------------------------|
------------------------------------------|


                                                                
------------------------------------------|--------------------|
-----------------11---11---11---10---10---|--11~---------------|
------------------------------------------|--14~---------------|
--13---13---13----------------------------|--------------------|
------------------------------------------|--------------------|
------------------------------------------|--------------------|


                                              
------------|--------------------------------|
------------|--------------------------------|
------------|--8---8---8------8---8---8------|
------------|--0---0---0------0---0---0------|
------------|--------------------------------|
------------|--------------------------------|


                                                                  
--------------------------------|--------------------------------|
--------------------------------|--------------------------------|
--8---8---8------8---8---8------|--8---8---8------8---8---8------|
--0---0---0------0---0---0------|--0---0---0------0---0---0------|
--------------------------------|--------------------------------|
--------------------------------|--------------------------------|


                                                                      
---------------------|--------------|--------------------------------|
---------------------|--------------|--------------------------------|
---------------------|--------------|--------------------------------|
---------------------|--------------|--------------------------------|
--0----2------3------|--5------6----|--0---0---0------0---0---0------|
--0----2------3------|--5------6----|--0---0---0------0---0---0------|


                                                                  
--------------------------------|--------------------------------|
--------------------------------|--------------------------------|
--------------------------------|--------------------------------|
--------------------------------|--------------------------------|
--0---0---0------0---0---0------|--0---0---0------0---0---0------|
--0---0---0------0---0---0------|--0---0---0------0---0---0------|


                                                                      
---------------------|--------------|--------------------------------|
---------------------|--------------|--------------------------------|
---------------------|--------------|--8---8---8------8---8---8------|
---------------------|--------------|--0---0---0------0---0---0------|
--0----2------3------|--5------6----|--------------------------------|
--0----2------3------|--5------6----|--------------------------------|


                                                                  
--------------------------------|--------------------------------|
--------------------------------|--------------------------------|
--8---8---8------8---8---8------|--8---8---8------8---8---8------|
--0---0---0------0---0---0------|--0---0---0------0---0---0------|
--------------------------------|--------------------------------|
--------------------------------|--------------------------------|


                                                                      
---------------------|--------------|--------------------------------|
---------------------|--------------|--------------------------------|
---------------------|--------------|--------------------------------|
---------------------|--------------|--------------------------------|
--0----2------3------|--5------6----|--0---0---0------0---0---0------|
--0----2------3------|--5------6----|--0---0---0------0---0---0------|


                                                                  
--------------------------------|--------------------------------|
--------------------------------|--------------------------------|
--------------------------------|--------------------------------|
--------------------------------|--------------------------------|
--0---0---0------0---0---0------|--0---0---0------0---0---0------|
--0---0---0------0---0---0------|--0---0---0------0---0---0------|


                                                                  
---------------------|--------------|---------------------|------|
---------------------|--------------|---------------------|------|
---------------------|--------------|---------------------|------|
---------------------|--------------|---------------------|------|
--0----2------3------|--5------6----|--0---2---3----------|------|
--0----2------3------|--5------6----|--0---2---3----------|------|


                                                           
--5----------------|--5----------------|------------------|
--8----------------|--8----------------|------------------|
--7----------------|--7----------------|------------------|
--5----------------|--5----------------|------------------|
--5----------------|--5----------------|------------------|
--5----------------|--5----------------|------------------|


                                                           
--5----------------|--5----------------|------------------|
--8----------------|--8----------------|------------------|
--7----------------|--7----------------|------------------|
--5----------------|--5----------------|------------------|
--5----------------|--5----------------|------------------|
--5----------------|--5----------------|------------------|


                                   
----------------------------------|
----------------------------------|
--8---8---8---8---8---8---8---8---|
----------------------------------|
--6---6---6---6---6---6---6---6---|
----------------------------------|


                                           
------------------------------------------|
------------------------------------------|
--10---10---10---10---10---10---10---10---|
------------------------------------------|
--8----8----8----8----8----8----8----8----|
------------------------------------------|


                                           
------------------------------------------|
------------------------------------------|
--12---12---12---12---12---12---12---12---|
------------------------------------------|
--10---10---10---10---10---10---10---10---|
------------------------------------------|


                                                               
------------------------------------------|--5----------------|
------------------------------------------|--8----------------|
--12---12---12---12---12---12---12---12---|--7----------------|
------------------------------------------|--5----------------|
--10---10---10---10---10---10---10---10---|--5----------------|
------------------------------------------|--5----------------|


                                                           
--5----------------|------------------|--5----------------|
--8----------------|------------------|--8----------------|
--7----------------|------------------|--7----------------|
--5----------------|------------------|--5----------------|
--5----------------|------------------|--5----------------|
--5----------------|------------------|--5----------------|


                                       
--5----------------|------------------|
--8----------------|------------------|
--7----------------|------------------|
--5----------------|------------------|
--5----------------|------------------|
--5----------------|------------------|


                                   
----------------------------------|
----------------------------------|
--8---8---8---8---8---8---8---8---|
----------------------------------|
--6---6---6---6---6---6---6---6---|
----------------------------------|


                                           
------------------------------------------|
------------------------------------------|
--10---10---10---10---10---10---10---10---|
------------------------------------------|
--8----8----8----8----8----8----8----8----|
------------------------------------------|


                                           
------------------------------------------|
------------------------------------------|
--12---12---12---12---12---12---12---12---|
------------------------------------------|
--10---10---10---10---10---10---10---10---|
------------------------------------------|


                                     
------------------------------------|
------------------------------------|
--12---12---12---12---12------------|
------------------------------------|
--10---10---10---10---10------------|
------------------------------------|


                                                                      
----------------------------------|----------------------------------|
--8---8---8---8---8---8---8---8---|--8---8---8---8---8---8---8---8---|
--7---7---7---7---7---7---7---7---|--7---7---7---7---7---7---7---7---|
--5---5---5---5---5---5---5---5---|--5---5---5---5---5---5---5---5---|
--5---5---5---5---5---5---5---5---|--5---5---5---5---5---5---5---5---|
--5---5---5---5---5---5---5---5---|--5---5---5---5---5---5---5---5---|


                                                                      
----------------------------------|----------------------------------|
--4---4---4---4---4---4---4---4---|--4---4---4---4---4---4---4---4---|
--3---3---3---3---3---3---3---3---|--3---3---3---3---3---3---3---3---|
--1---1---1---1---1---1---1---1---|--1---1---1---1---1---1---1---1---|
--1---1---1---1---1---1---1---1---|--1---1---1---1---1---1---1---1---|
--1---1---1---1---1---1---1---1---|--1---1---1---1---1---1---1---1---|


                                                                      
----------------------------------|----------------------------------|
--8---8---8---8---8---8---8---8---|--8---8---8---8---8---8---8---8---|
--7---7---7---7---7---7---7---7---|--7---7---7---7---7---7---7---7---|
--5---5---5---5---5---5---5---5---|--5---5---5---5---5---5---5---5---|
--5---5---5---5---5---5---5---5---|--5---5---5---5---5---5---5---5---|
--5---5---5---5---5---5---5---5---|--5---5---5---5---5---5---5---5---|


                                                                    
----------------------------------|--------------------------------|
--4---4---4---4---4---4---4---4---|--4---4---4---4-----------------|
--3---3---3---3---3---3---3---3---|--3---3---3---3-----------------|
--1---1---1---1---1---1---1---1---|--1---1---1---1-----------------|
--1---1---1---1---1---1---1---1---|--1---1---1---1---0---3---------|
--1---1---1---1---1---1---1---1---|--1---1---1---1---0---3---------|


                                           
------------------------------------------|
-----------------11---11---11---10---10---|
------------------------------------------|
--12---12---12----------------------------|
------------------------------------------|
------------------------------------------|


                                           
------------------------------------------|
--10---11---11---11---10---10---11---11---|
------------------------------------------|
------------------------------------------|
------------------------------------------|
------------------------------------------|


                                           
------------------------------------------|
-----------------11---11---11---10---10---|
------------------------------------------|
--13---13---13----------------------------|
------------------------------------------|
------------------------------------------|


                                           
------------------------------------------|
--10---11---11---11---10---10---11---11---|
------------------------------------------|
------------------------------------------|
------------------------------------------|
------------------------------------------|


                                           
------------------------------------------|
-----------------11---11---11---10---10---|
------------------------------------------|
--12---12---12----------------------------|
------------------------------------------|
------------------------------------------|


                                           
------------------------------------------|
--10---11---11---11---10---10---11---11---|
------------------------------------------|
------------------------------------------|
------------------------------------------|
------------------------------------------|


                                                                
------------------------------------------|--------------------|
-----------------11---11---11---10---10---|--11~---------------|
------------------------------------------|--14~---------------|
--13---13---13----------------------------|--------------------|
------------------------------------------|--------------------|
------------------------------------------|--------------------|


                                                  
------------|---------------------|--------------|
------------|---------------------|--------------|
------------|---------------------|--------------|
------------|---------------------|--------------|
------------|--0----2------3------|--5------6----|
------------|--0----2------3------|--5------6----|


                                                                     
---------------------|------------|--------------------|------------|
---------------------|------------|--------------------|------------|
---------------------|------------|--------------------|------------|
---------------------|------------|--------------------|------------|
--0---2---3----------|------------|--0---2-------------|------------|
--0---2---3----------|------------|--0---2-------------|------------|


                                                     
--------------------|----|---------------------|----|
--------------------|----|---------------------|----|
--------------------|----|---------------------|----|
--------------------|----|---------------------|----|
--0---2-------------|----|--0---2---3----------|----|
--0---2-------------|----|--0---2---3----------|----|


                                                     
--------------------|----|---------------------|----|
--------------------|----|---------------------|----|
--------------------|----|---------------------|----|
--------------------|----|---------------------|----|
--0---2-------------|----|--0---2---3----------|----|
--0---2-------------|----|--0---2---3----------|----|


                                                     
--------------------|----|---------------------|----|
--------------------|----|---------------------|----|
--------------------|----|---------------------|----|
--------------------|----|---------------------|----|
--0---2-------------|----|--0---2---3----------|----|
--0---2-------------|----|--0---2---3----------|----|


                                                             
--------------------|----|----------------------|-----------|
--------------------|----|----------------------|-----------|
--------------------|----|----------------------|-----------|
--------------------|----|----------------------|-----------|
--0---2-------------|----|--0---2---3------6----|----5------|
--0---2-------------|----|--0---2---3------6----|----5------|


                                                                      
----------------------|-----------|----------------------|-----------|
----------------------|-----------|----------------------|-----------|
----------------------|-----------|----------------------|-----------|
----------------------|-----------|----------------------|-----------|
--0---2------3------5-|------6----|--0---2---3------6----|----5------|
--0---2------3------5-|------6----|--0---2---3------6----|----5------|


                                                                      
----------------------|-----------|----------------------|-----------|
----------------------|-----------|----------------------|-----------|
----------------------|-----------|----------------------|-----------|
----------------------|-----------|----------------------|-----------|
--0---2------3------5-|------6----|--0---2---3------6----|----5------|
--0---2------3------5-|------6----|--0---2---3------6----|----5------|


                                                                      
----------------------|-----------|----------------------|-----------|
----------------------|-----------|----------------------|-----------|
----------------------|-----------|----------------------|-----------|
----------------------|-----------|----------------------|-----------|
--0---2------3------5-|------6----|--0---2---3------6----|----5------|
--0---2------3------5-|------6----|--0---2---3------6----|----5------|


                                                                
----------------------|-----------|---------------------|------|
----------------------|-----------|---------------------|------|
----------------------|-----------|---------------------|------|
----------------------|-----------|---------------------|------|
--0---2------3------5-|------6----|--0---2---3----------|------|
--0---2------3------5-|------6----|--0---2---3----------|------|


                                                                      
----------------------------------|----------------------------------|
--8---8---8---8---8---8---8---8---|--8---8---8---8---8---8---8---8---|
--7---7---7---7---7---7---7---7---|--7---7---7---7---7---7---7---7---|
--5---5---5---5---5---5---5---5---|--5---5---5---5---5---5---5---5---|
--5---5---5---5---5---5---5---5---|--5---5---5---5---5---5---5---5---|
--5---5---5---5---5---5---5---5---|--5---5---5---5---5---5---5---5---|


                                                                      
----------------------------------|----------------------------------|
--4---4---4---4---4---4---4---4---|--4---4---4---4---4---4---4---4---|
--3---3---3---3---3---3---3---3---|--3---3---3---3---3---3---3---3---|
--1---1---1---1---1---1---1---1---|--1---1---1---1---1---1---1---1---|
--1---1---1---1---1---1---1---1---|--1---1---1---1---1---1---1---1---|
--1---1---1---1---1---1---1---1---|--1---1---1---1---1---1---1---1---|


                                                                      
----------------------------------|----------------------------------|
--8---8---8---8---8---8---8---8---|--8---8---8---8---8---8---8---8---|
--7---7---7---7---7---7---7---7---|--7---7---7---7---7---7---7---7---|
--5---5---5---5---5---5---5---5---|--5---5---5---5---5---5---5---5---|
--5---5---5---5---5---5---5---5---|--5---5---5---5---5---5---5---5---|
--5---5---5---5---5---5---5---5---|--5---5---5---5---5---5---5---5---|


                                                                    
----------------------------------|--------------------------------|
--4---4---4---4---4---4---4---4---|--4---4---4---4-----------------|
--3---3---3---3---3---3---3---3---|--3---3---3---3-----------------|
--1---1---1---1---1---1---1---1---|--1---1---1---1-----------------|
--1---1---1---1---1---1---1---1---|--1---1---1---1---0---3---------|
--1---1---1---1---1---1---1---1---|--1---1---1---1---0---3---------|


                                           
------------------------------------------|
-----------------11---11---11---10---10---|
------------------------------------------|
--12---12---12----------------------------|
------------------------------------------|
------------------------------------------|


                                           
------------------------------------------|
--10---11---11---11---10---10---11---11---|
------------------------------------------|
------------------------------------------|
------------------------------------------|
------------------------------------------|


                                           
------------------------------------------|
-----------------11---11---11---10---10---|
------------------------------------------|
--13---13---13----------------------------|
------------------------------------------|
------------------------------------------|


                                           
------------------------------------------|
--10---11---11---11---10---10---11---11---|
------------------------------------------|
------------------------------------------|
------------------------------------------|
------------------------------------------|


                                           
------------------------------------------|
-----------------11---11---11---10---10---|
------------------------------------------|
--12---12---12----------------------------|
------------------------------------------|
------------------------------------------|


                                           
------------------------------------------|
--10---11---11---11---10---10---11---11---|
------------------------------------------|
------------------------------------------|
------------------------------------------|
------------------------------------------|


                                                                
------------------------------------------|--------------------|
-----------------11---11---11---10---10---|--11~---------------|
------------------------------------------|--14~---------------|
--13---13---13----------------------------|--------------------|
------------------------------------------|--------------------|
------------------------------------------|--------------------|


                                    
----------------------------------||
----------------------------------||
----------------------------------||
----------------------------------||
----------------------------------||
----------------------------------||
Comments