Glassjaw - Pretty Lush Chords & Tabs

 

Pretty Lush Chords & Tabs

Glassjaw Chords & Tabs

Version: 1 Type: Bass Tab 0 ratings
1 star 2 stars 3 stars 4 stars 5 stars
comments

Pretty Lush Bass Tab

   
Glassjaw - Pretty Lush

h=hammer on

each verse 
D-0-0-0--0-0-0--0-0-0--0-0-0--0-0-0--0-0-0--0-2-3-5-6  play x4

Next thing i don't know what to call it
each time it changes a little but here is the main riff it is one of those
the stuff in perenthasis is a cord
G---------------(7)---        G---------------(6)--
D---5h7-5---5h7-(5)-7-   or   D---4h6-4---4h6-(4)-6
A--5-----5-5-------5--        A--4-----4-4-------5-
D-5-------5-----------        D-4-------4----------

1st pre chorus thing
D-0-0-0-0-0-0-0-0-0-0-0-0-0-0-0-0-0-0-0-0-0-0-0-0-0-0-0
i don't really know the count but that is how it is played

2nd pre chorus thing-this is what i do but on the album he just does open notes
A----------------7-7-7-7-7-7-7-7-9-9-9-9-9-9-9-9-11-11-11-11-12
D-0-0-0-0-0-0-0-0
[ Tab from: http://www.guitartabs.cc/tabs/g/glassjaw/pretty_lush_btab.html ]
1st part to chorus x2
D-5-5-5-5-5-5-5-5-5-5-5-5-5-5-5-5-----------1-1-1-1-1-1-1-1-3-3-3-1-1-1-1

2nd chorus part x2
G--5-7-5-7-5-7-5-7-5-7--------------------
D-5---5---5---5---5----6-7-6-7-6-7-6-7-6-7
A---------------------6---6---6---6---6---
D-----------------------------------------

openining of bridge
D-0-2--0-2-3--0-2--0-2-3--0-2--0-2-3--0-2--0-2-3-5-6-0-2-3-5-6

next part in the bridge
D-0-2-3-6-5-0-2-3-5-6-0-2-3-6-5
just follow that pattern

this is a very easy song to play but fast in most parts
order:
verse
little thing?
1st pre chorus
little thing?
2nd pre chorus
1st part to chorus
2nd part to chorus
verse
little thing?
1st pre chorus
little thing?
2nd pre chorus
1st part to chorus
1st part to chorus
begining of bridge 
bridge
1st part to chorus
2nd part to chorus
Comments