Glassjaw - Piano Chords & Tabs

 

Piano Chords & Tabs

Glassjaw Chords & Tabs

Version: 2 Type: Bass Tab 0 ratings
1 star 2 stars 3 stars 4 stars 5 stars
comments

Piano Bass Tab

   
Track:Piano
Album:Everything you ever wanted to know about silence
Artist:glassJAw
Tabbed by:groovygecko@hotmail.com

'Dropped D' Tuning


Riff 1
G:---------------------------------------------------------------------------
D:---------------------------------------------------------------------------
A:-----------3-3-3-3----------3-3-3-3----------1-1-1-1---------1-1-1-1-
D:-0-0-0-0----------0-0-0-0-----------0-0-0-0---------0-0-0-0---------- (x4)

Verse  (part 1)
G:--------
D:--------
A:--------
D:--4--4--|Rest| (x2)

(part 2)
G:-----------------------------------------------------------------------------
D:-----------------------------------------------------------------------------
A:------------------------------------------------------------------------------
D:-4-4-4-4-4-4-4-4-7-7-7-7-7-7-7-7-9-9-9-9-9-9-9-9-0-0-0-0-0-0-0-0- (x2)

Riff 1 (x4)

Verse (part 1) (x1)
[ Tab from: http://www.guitartabs.cc/tabs/g/glassjaw/piano_btab_ver_2.html ]
             (slide up and down on all of these)
G:------------6-7-9-11-6-4--6h7h6--6-4-2--7-7------------
D:----------------------------------------------------------
A:-----------------------------------------------------------
D:--4--4-------------------------------------------------------

Verse (part 2) (x2)

Riff 1 (x4)

Riff 2 
G:-------------------------------------------------------------
D:-------------------------------------------------------------
A:-------------------------------------------------------------
D:-11-11--7-7--9-9--4-4--11-11--7-7--9-9--4-4-2-4-4-2

G:-----------------------------------------------------------------------
D:-----------------------------------------------------------------------
A:-----------------------------------------------------------------------
D:-11-11-6-6-11-11-6-6-9-9-6-6-9-9-6-6-11-11-6-6-11-11-6-6-9-9-6-6-4-4-6-6- (x8)

Riff 2 (x8 or so)
Comments