Glassjaw - Piano Chords & Tabs

 

Piano Chords & Tabs

Glassjaw Chords & Tabs

Version: 1 Type: Bass Tab 0 ratings
1 star 2 stars 3 stars 4 stars 5 stars
comments

Piano Bass Tab

   
Band:Glassjaw
Song:Piano
Tuning:DADGBE
h=hammer-on
p=pull-off

Tabbed By:Glenn

intro/chorus
--------------------------------------------------------------------------
--------------------------------------------------------------------------
--------------------------------------------------------------------------
-0-0-0-0-10-10-10-10-0-0-0-0-10-10-10-10-8-8-8-8-8-8-8-7-8-8-8-8-8-10-8-7-

--------------------------------------------------------------------------
--------------------------------------------------------------------------
--------------------------------------------------------------------------
-10-10-10-10-0-0-0-0-10-10-10-10-0-0-0-0-8-8-8-8-8-8-8-7-8-8-8-8-8-10-8-7-

verse (first time he plays verse)
-----------------------------------------------------------------
-4-4-------------------------------------------------------------
-4-4---------0-0-------------------------------------------------
-4-4-4-4-4-4-----0-0-0-0-0-0-0-0-2-2-2-2-2-2-4-4-0-0-0-0-0-0-2-2-

---------------------------------------------------------
-4-4-----------------------------------------------------
-4-4---------0-0-----------------------------------------
-4-4-4-4-4-4-----0-0-0-0-0-0-0-0-2-2-2-2-2-2-4-4-0-0-0-0-
[ Tab from: http://www.guitartabs.cc/tabs/g/glassjaw/piano_btab.html ]
verse (second time he plays verse)
------------------------------------------
-4-4----11s14-14s16-11s9-9-11h12p11-9s7-7-
-4-4--------------------------------------
-4-4--------------------------------------

---------------------------------------------------------------------|-----
-4-4-------------------------------------------------------------4-4-|-----
-4-4---------0-0-------------------------------------------------4-4-|-1-1-
-4-4-4-4-4-4-----0-0-0-0-0-0-0-0-2-2-2-2-2-2-4-4-0-0-0-0-0-0-2-2-4-4-|-1-1-

outro
------------------------------------|---------4-4-------------4-4-------------4-4---------------------
------------------------------------|-----6-6-----6-6-----6-6-----6-6-----6-6-----6-6-----------------
-4-4----0-0----2-2------------------|-4-4-------------0-0-------------2-2-------------2-2-------------
----------------------4-4--2-4-4--2-|-----------------------------------------------------4-4-2-2-4-4-

---------4-4-------------4-4-------------4-4---------------------
-----6-6-----6-6-----6-6-----6-6-----6-6-----6-6-----------------
-4-4-------------0-0-------------2-2-------------2-2-0-0-0-0-0-0-
-----------------------------------------------------0-0-0-0-0-0-

-----------------------------------------------------------------
-----------------------------------------------------------------
-4-4-4-4-4-4-4-4-0-0-0-0-0-0-0-0-2-2-2-2-2-2-2-2-----------------
-------------------------------------------------4-4-4-2-4-4-4-2-
Comments