Glassjaw - Matchbook Blackbook Chords & Tabs

 

Matchbook Blackbook Chords & Tabs

Glassjaw Chords & Tabs

Version: 1 Type: Bass Tab 0 ratings
1 star 2 stars 3 stars 4 stars 5 stars
comments

Matchbook Blackbook Bass Tab

   
tabbed by glassjawguy
matchbook blackbook
from the don fury demo
/=slideverse:this is the basic baseline all the other stuff is just fills
G--9-7-5----------
D-7-5-3--0/3/5/7/5
A-----------------
D-----------------
do that over and over again
[ Tab from: http://www.guitartabs.cc/tabs/g/glassjaw/matchbook_blackbook_btab.html ]
chorus:played very fast (it's played something like that if 
not exact then very close and i didn't put in all the fills 
just the basic way to play it if u want to just make up your 
own fills it's easier than doin stuff the exact way anyway
G-----------------------------------8------------------
D-------------------8-8-8-8-8-8h10h8-8-----------------
A----------8-8-8-8-8------------------8----------------
D-8-8-8-8-8-----------------------------6-6-6-6-6-2----

bass solo thing             cord
G---------------------------(10)---15/17-------------
D-8-8-8-8-8-8-8-8-8-8-8-8-8-(8 )---------15-17-15--15
A------------------------------------------------17--
D----------------------------------------------------

bridge:that is the tab for it you just have to pic out the beat
D-1-1-1-1-1
Comments