Glassjaw - Majour Chords & Tabs

 

Majour Chords & Tabs

Glassjaw Chords & Tabs

Version: 2 Type: Tab 0 ratings
1 star 2 stars 3 stars 4 stars 5 stars
comments

Majour Tab

Artist - GlassJAw
Song   - Majour
Album  - Everything You Ever Wanted To Know About Silence
Tuning - DADGBE
Tabbed by David Diuguid (aka bmskate/DEFreak13)

pm... = palm mute
s     = slide
/\    = hammer on/off
<>    = harmonic


Intro [clean]
 strum
|--------|-------3-|
|-7----3-|---3-----|    strum the chords, then
|-7----0-|-----0---|<-- hit tremolo pedal
|-5----x-|---------|    for these notes
|-7----3-|-3-------|
|--------|---------|


Chorus [distortion]
|----3-------|---------|
|-7--3--3--3-|---------|
|-7--0--4--x-|---------|
|-5--x--2--3-|-0-0-0-0-|
|-7--3--0--3-|-0-0-0-0-|
|----------3-|-0-0-0-0-|


Verse [tremolo]
|-----------------------------------------|---|
|-0-----7-----------7-----------7---------|---|
|-5---9---9-------9---9-------9---9-------|---|
|---9-------9---9-------9---9-------9---9-|---|
|-7-----------8-----------7-----------8---|---|
|-----------------------------------------|-0-|

[ Tab from: http://www.guitartabs.cc/tabs/g/glassjaw/majour_tab_ver_2.html ]
Pre-Chorus [distortion/compression]
|---------------3---------3-------------|
|---------------0---------0-------------|
|----5----------0---------0-------------|
|----3---xx-2-2-2-----2-2-2-0-0-0-0-0-5-|
|----3---xx-2-2-------2-2---0-0-0-0-0-5-|
|-14s3---xx-2-2----14s2-2---0-0-0-0-0-5-|


2nd Verse (2 guitars)
|-15--12------------------------------------|<--this is tremolo/distortion
|-------------------------------------------|
|-------------------------------------------|
|-------------------------------------------|
|-------------------------------------------|   this is a continuous pick scrape
|---------1-1-1-1s2-2-2-2-2-2-2-2-2-3-3-3-3-|<--near 2nd fret w/ distortion (no tremolo)


Fill Over Last Chorus [tremolo/distortion]
|-12--15--14--17-|
|----------------|
|----------------|
|----------------|
|----------------|
|----------------|


Strum These Chords Till Ending [clean
|-0--0-|
|-x--x-|
|-4--4-|
|-2--2-|
|-2--2-|
|-2--3-|


Any questions or comments e-mail me at bmskate@hotmail.com or on Instant Messenger As DEFreak13
Comments