Glassjaw - Lovebites And Razorlines Chords & Tabs

 

Lovebites And Razorlines Chords & Tabs

Glassjaw Chords & Tabs

Version: 1 Type: Tab 0 ratings
1 star 2 stars 3 stars 4 stars 5 stars
comments

Lovebites And Razorlines Tab

Artist - GlassJAw
Song   - Lovebites And Razorlines
Album  - Everything You Ever Wanted To Know About Silence
Tuning - DADGBE
Tabbed by David Diuguid (aka bmskate/DEFreak13)

pm... = palm mute
s     = slide
/\    = hammer on/off
<#>   = harmonic
(#)   = don't pick the note; slide down/up to that # or start at that # (relative, not approximate)


Verse [distortion/compression]
|-------------------|-----|---|
|-8-8-8-8---8-8-8-8-|-----|-5-|
|-7-7-7-7---7-7-7-7-|-----|-8-|<--*these fills you hit very fast
|-6-6-6-6---6-6-6-6-|-----|---|    in-between the chords
|-5-5-5-5---5-5-5-5-|-----|---|   *the other fill they do is slide
|-5-5-5-5---5-5-5-5-|-<5>-|---|    hands across strings & hit random harmonics


Pre-Chorus [distortion/chorus]
|------------------------------------------------------|
|-------------------------------0------------1-------1-|
|---------------0------0------0------------------------|
|----0--2--3--2---2--2---2--2-----2--3--0--3------3----|
|----0--2--3----------------------2--3--0------3-------|
|-15s0--2--3----------------------2--3--0--------------|


Chorus [distortion/chorus]
|--------------------------------------------------------|
|--------------------------------------------------------|
|--------------------------------6--6---6----6--6--6---6-|
|----1-11------11---11------11---5--5---5----5--5--5---5-|
|----1-9---9-9-0----9---9-9-0----5--5---5----5--5--5---5-|
|-15s1s9---9-9-0----9---9-9-0----5--5---5----5--5--5---5-|

[ Tab from: http://www.guitartabs.cc/tabs/g/glassjaw/lovebites_and_razorlines_tab.html ]
2nd Guitar Over Chorus [distortion/chorus]
|-----------------------------------------------------|
|-12s14-----------------------------------------------|
|-----------------------------------------------------|
|-----------------7-7-7-7-7-7-7-7-9-9-9-9-7-7-7-7-7-7-|<--you pick these
|-----------------------------------------------------|   notes more than
|-----------------------------------------------------|   that but i'm lazy

|-------------------------------------------------------------|
|-12s14-------------------------------------------------------|
|-------------------------------------------------------------|
|-----------------7-7-7-7-7-7-7-7-9-9-9-9-11-11-11-11-7-7-7-7-|<--you pick
|-------------------------------------------------------------| these notes
|-------------------------------------------------------------| more too


Fill [distortion/compression]
|----------------|
|----------------|
|----------------|
|----1-9-3-2-1-0-|
|----1-9-3-2-1-0-|
|-15s1-9-3-2-1-0-|


Interlude [distortion/compression]
|----------------|-------------------------------------|
|----------------|-5----5---------------------------5--|
|----------------|-4----7--------6--------6------------|
|------9-3-2-x-1-|-6----7------4---4----4---4----4---4-|
|------9-3-2-x-1-|-4----5----2--------0--------5-------|
|-15s1-9-3-2-x-1-|-4----5------------------------------|


Solo Over Interlude [distortion/chorus]
pick more than 4
|-----------------|-9/10\9----9-10\9------9/10\9-----9-10-----9----9/10\9-|
|-----------------|--------10---------10---------10--------10---10--------|
|-9-9-9-9-6-6-6-6-|-------------------------------------------------------|
|-----------------|-------------------------------------------------------|
|-7-7-7-7-4-4-4-4-|-------------------------------------------------------|
|-----------------|-------------------------------------------------------|


Outro [distortion]
|------------|
|-8-8----8-8-|
|-7-7----7-7-|
|-6-6----6-6-|
|-5-5----5-5-|
|-5-5----5-5-|


Any questions or comments? contact me via e-mail me at bmskate@hotmail.com or on Instant Messenger As DEFreak13
Comments