Glassjaw - Convectuoso Chords & Tabs

 

Convectuoso Chords & Tabs

Glassjaw Chords & Tabs

Version: 1 Type: Tab 0 ratings
1 star 2 stars 3 stars 4 stars 5 stars
comments

Convectuoso Tab

Artist - GlassJAw
Song   - Convectuoso (live in studio)
Album  - n/a (Ry Ry's Song Single)
Tuning - DADGBE
Tabbed by David Diuguid (aka bmskate/DEFreak13)
Date: 12/14/01

pm... = palm mute
^#    = bend (to note of #)
r#    = release bend (to note of #)
s     = slide
/\    = hammer on/off
<#>   = harmonic
(#)   = don't pick the note; slide down/up to that # or start at that # (relative, not approximate)


Verse - Both Guitars [flanger] (0:01) (1:13)
|---------0--3------------0--0----|-3--------|-3-|-----|---|
|------0--0--0-------0----0--0--0-|----0-----|---|-0---|---|
|------0--0--0-------0----0--0--0-|-------0--|---|---0-|---|
|-3----3--3--3----2--2----2--2--2-|----------|---|-----|---|
|-3----3--3--3----2--2----2--2--2-|----------|---|-----|-0-|
|-3----3--3--3----2--2----2--2--2-|----------|---|-----|-0-|<-tremolo at the 00


Chorus - Both Guitars [flanger] (0:49) (2:02) (3:35)
"we are upset you don't miss guidance in his word (???) we are ok..."
|----------------------------------0---0-----------------|-------3----|
|-------0--0-0-----0--0--0------0--0---0/1---0/1---0/1---|-0--------0-|
|-0--0--5--5-5--0--4--4--4-0--0-0--x-------0-----0-----0-|-0----------|
|-7--7--7--7-7--5--5--5--5-5--3-3--3---------------------|-3----------|
|-7--7--7--7-7--5--5--5--5-5--3-3--3---------------------|-3----------|
|-7--7--7--7-7--5--5--5--5-5--3-3--3---------------------|-3----------|


Bridge [flanger] (2:26)
pm............................   ....... ........
|---------------------------------|---------|---------|
|---------------------------------|---------|---------|
|-----------------------------0---|-----0---|-----0---|
|---------7-----------7---------7-|-------0-|---7---7-|
|---9---9---9---9---9---9---9-----|---9-----|---------|
|-9---9-------9---9-------9-------|-9-------|-9-------|
[ Tab from: http://www.guitartabs.cc/tabs/g/glassjaw/convectuoso_tab.html ]
pm.................................................................
|------------------------------------------------------------------|
|------------------------------------------------------------------|
|-----------------------------0--------------------0-----0-----0---|
|---------7-----------7---------0-5-0-4----0-4---0---4-----4-----0-|
|---9---9---9---9---9---9---9--------------------------5-----5-----|
|-7---7-------7---7-------7-------------5^-----5-------------------|

pm....................   ....
|-------------------------------------|---|
|-------------------------------------|---|
|---------------------<7>-----0-0---0-|-0-|
|---------7-----7---------7-------0-4-|-4-|
|---9---9---9-------9-------9-------5-|-5-|
|-7---7-------7---7-----------------5-|-5-|


Solo [flanger] (3:12)
|-----------------------------------------------------------------------|
|------------------------------------------------0----------------7/8\7-|
|------------------------0--------0---------9------9----0-----7-7-------|
|-------7-7----7-----7-----7-7s9----9-9s11----11-----11---0-0-----------|
|---9--------9----9----9------------------------------------------------|
|-9---9-----------------------------------------------------------------|

|------10-----10-----10-------------------10-----10-----10---|
|---------7------7------7/8---7---7/8--------7------7------7-|
|-7-7-------7------7------7-7---7-----7-7------7------7------|
|------------------------------------------------------------|
|------------------------------------------------------------|
|------------------------------------------------------------|

|--------------------------------------------------------------|
|----------------------------------------------0------0--------|
|------------0-------0--------------9-----9------9------9------|
|-------7--7---7-7-----7---7s9-9s11---11----11-----11-----11-0-|
|---9--------------9-----9-------------------------------------|
|-9---9--------------------------------------------------------|

|-------------10-----10-----10-------------10----------10--10-10-10-10-|
|-----8-7--------7------7------7-7-7/8\7-------7/8\7-------7--7--7--7--|
|-7-7------------------------------------7-----------7-----7--7--7--7--|
|-0-------0-0-0----0------0--------------------------------------------|
|----------------------------------------------------------------------|
|----------------------------------------------------------------------|


If you have any questions or comments, contact me via e-mail bmskate@hotmail.com or on Instant Messenger 
DEFreak13
Comments