Glassjaw - Ape Dos Mil Chords & Tabs

 

Ape Dos Mil Chords & Tabs

Glassjaw Chords & Tabs

Version: 4 Type: Tab 0 ratings
1 star 2 stars 3 stars 4 stars 5 stars
comments

Ape Dos Mil Tab

   
I've come a across loads of tabs for this song. All the tabs only have 
certain parts right. I combined all of them and added my own work to it.
So everyone I borrowed from you'll know who you are. This is probably the closest 
you're going to get to the record.


Intro and Verse (guitar 1 rhythm)

e|-------------------------------------------------------------------------------------------------|
B|-------------------------------------------------------------------------------------------------|
G|-------------------------------------------------------------------------------------------------|
D|-10-10-10-10-10-10-10-10-10-10-10-10-10-10-10-10-10-10-10-10-10-10-10-10-12-12-12-12-10-10-10-10-|
A|-12-12-12-12-12-12-12-12-11-11-11-11-11-11-11-11-10-10-10-10-10-10-10-10-9--9--9--9--10-10-10-10-|
D|-------------------------------------------------------------------------------------------------|
 |
e|----------------------------------------------------------------------|
B|----------------------------------------------------------------------|
G|---------------12-------12------12------------------------------------|
D|------------------14-------14-------14--------------------------------|
A|----------------------------------------------------------------------|
D|----------------------------------------------------------------------|

e|-------------------------------------------------------------------------------------------------|
B|-------------------------------------------------------------------------------------------------|
G|-------------------------------------------------------------------------------------------------|
D|-10-10-10-10h12-12-10-10-10-10-10-10h12-12-10-10-10-10-10-10-10-10-10-10-12-12-12-12-10-10-10-10-|
A|-12-12-12-12-12-12-12-12-11-11-11-11-11-11-11-11-10-10-10-10-10-10-10-10-9--9--9--9--10-10-10-10-|
D|-------------------------------------------------------------------------------------------------|
 | 
e|--------------------------------------------------|------------|--------|
B|--------------------------------------------------|-(15)-------|-14--16-|
G|------------------------12------12-----12-14---14-|------12-14-|--------|
D|---------------------------14-----14--------------|------------|--------|
A|--------------------------------------------------|------------|--------|
D|--------------------------------------------------|------------|--------|

pre chorus ('I don't understand why I'm...)
e|-----------------------------------------------------------------|
B|-----------------------------------------------------------------|
G|-9-9-9-9-9-9-9-9-8-8-8-8-8-8-8-8-8-7-7-7-7-7-7-7-7-6-6-6-6-7-7-7-|
D|-5-5-5-5-5-5-5-5-5-5-5-5-5-5-5-5-5-5-5-5-5-5-5-5-5-7-7-7-7-5-5-5-|
A|-----------------------------------------------------------------|
D|-----------------------------------------------------------------|
 |
e|-----------------------------------------------------------------|
B|-----------------------------------------------------------------|
G|-----------------------------------------------------------------|
D|-5-5-5-5-5-5-5-5-5-5-5-5-5-5-5-5-5-5-5-5-5-5-5-5-5-7-7-7-7-5-5-5-|
A|-7-7-7-7-7-7-7-7-6-6-6-6-6-6-6-6-6-5-5-5-5-5-5-5-5-4-4-4-4-5-5-5-|
D|-----------------------------------------------------------------|



Chorus 1
e|----------------------------------------------------------|
B|--------------3-------------------------------------------|
G|-----10-10-10-2-------------------------------------------|
D|-7-7-10-10-10-0-------------------------------------------|
A|-7-7--8--8--8-0-------------------------------------------|
D|-7-7--8--8--8-0-------------------------------------------|
 |
e|----------------------------------------------------------|
B|--------------3----12------15------12-----12h13p12--------|
G|-2-2--3--3--3-2---------12------12------12--------12--12--|
D|-2-2--3--3--3-0------14------14------14-------------14----|
A|-0-0--1--1--1-0-------------------------------------------|
D|--------------0-------------------------------------------|


e|----------------------------------------------------------|
B|---------------3------------------------------------------|
G|------10-10-10-2------------------------------------------|
D|-7-7--10-10-10-0------------------------------------------|
A|-7-7---8--8--8-0------------------------------------------|
D|-7-7---8--8--8-0------------------------------------------|
 |
e|----------------------------------------------------------|
B|----------------------------------------------------------|
G|-2-/5--3--3--3--------------10/12\10/12\10/12\10/12\10----|
D|-2-/5--3--3--3--------------------------------------------|
A|-0-/3--1--1--1---------------8/10\-8-/10\8/10\-8-/10\8----|
D|----------------------------------------------------------|


2nd verse
e|-------------------------------------------------------------------------------------------------|
B|-------------------------------------------------------------------------------------------------|
G|-------------------------------------------------------------------------------------------------|
D|-10-10-10-10-10-10-10-10-10-10-10-10-10-10-10-10-10-10-10-10-10-10-10-10-12-12-12-12-10-10-10-10-|
A|-12-12-12-12-12-12-12-12-11-11-11-11-11-11-11-11-10-10-10-10-10-10-10-10-9--9--9--9--10-10-10-10-|
D|-------------------------------------------------------------------------------------------------|
 |
e|------------|--------|
B|-(15)-------|-14--16-|
G|------12-14-|--------|
D|------------|--------|
A|------------|--------|
D|------------|--------|


pre chorus ('I don't understand why I'm...)
e|-----------------------------------------------------------------|
B|-----------------------------------------------------------------|
G|-9-9-9-9-9-9-9-9-8-8-8-8-8-8-8-8-8-7-7-7-7-7-7-7-7-6-6-6-6-7-7-7-|
D|-5-5-5-5-5-5-5-5-5-5-5-5-5-5-5-5-5-5-5-5-5-5-5-5-5-7-7-7-7-5-5-5-|
A|-----------------------------------------------------------------|
D|-----------------------------------------------------------------|
 |
e|-----------------------------------------------------------------|
B|-----------------------------------------------------------------|
G|-----------------------------------------------------------------|
D|-5-5-5-5-5-5-5-5-5-5-5-5-5-5-5-5-5-5-5-5-5-5-5-5-5-7-7-7-7-5-5-5-|
A|-7-7-7-7-7-7-7-7-6-6-6-6-6-6-6-6-6-5-5-5-5-5-5-5-5-4-4-4-4-5-5-5-|
D|-----------------------------------------------------------------|

Chorus 2
e|----------------------------------------------------------|
B|--------------3-------------------------------------------|
G|-----10-10-10-2-------------------------------------------|
D|-7-7-10-10-10-0-------------------------------------------|
A|-7-7--8--8--8-0-------------------------------------------|
D|-7-7--8--8--8-0-------------------------------------------|
 |
e|----------------------------------------------------------|
B|--------------3----12------15------12-----12h13p12--------|
G|-2-2--3--3--3-2---------12------12------12--------12--12--|
D|-2-2--3--3--3-0------14------14------14-------------14----|
A|-0-0--1--1--1-0-------------------------------------------|
D|--------------0-------------------------------------------|


e|-----------------------------------------------------------|
B|--------------3--------------------------------------------|
G|-----10-10-10-2--------------------------------------------|
D|-7-7-10-10-10-0--------------------------------------------|
A|-7-7--8--8--8-0--------------------------------------------|
D|-7-7--8--8--8-0-----------pick-scrape----------------------|
 |                               tremolo pick these chords
e|-----------------------------------------------------------|
B|-----------------------------------------------------------|
G|-2-/5--3-3--3----10/12\10/12\10/12\----10/12-12-14-14-17-17| 
D|-2-/5--3-3--3----------------------------------------------|
A|-0-/3--1-1--1----8/10\-8-/10\8/10\------8/10-10-12-12-15-15| 
D|-----------------------------------------------------------|


e|----------------------------------------------------------|
B|--------------3-------------------------------------------|
G|-----10-10-10-2-------------------------------------------|
D|-7-7-10-10-10-0-------------------------------------------|
A|-7-7--8--8--8-0-------------------------------------------|
D|-7-7--8--8--8-0-------------------------------------------|
 |
e|----------------------------------------------------------|
B|--------------3----12------15------12-----12h13p12--------|
G|-2-2--3--3--3-2---------12------12------12--------12--12--|
D|-2-2--3--3--3-0------14------14------14-------------14----|
A|-0-0--1--1--1-0-------------------------------------------|
D|--------------0-------------------------------------------|

e|----------------------------------------------------------|
B|---------------3------------------------------------------|
G|------10-10-10-2------------------------------------------|
D|-7-7--10-10-10-0------------------------------------------|
A|-7-7---8--8--8-0------------------------------------------|
D|-7-7---8--8--8-0------------------------------------------|
 |
e|----------------------------------------------------------|
B|----------------------------------------------------------|
G|-2-/5--3--3--3--------------10/12\10/12\10/12\10/12\10----|
D|-2-/5--3--3--3--------------------------------------------|
A|-0-/3--1--1--1---------------8/10\-8-/10\8/10\-8-/10\8----|
D|----------------------------------------------------------|
[ Tab from: http://www.guitartabs.cc/tabs/g/glassjaw/ape_dos_mil_tab_ver_4.html ]
Bridge('I, I,...')
e|--------------------------------------------------------------------------------|
B|--------------------------------------------------------------------------------|
G|-9--9--9--9--9--9--9--9--9--9--9--9--9--9--9--9-0-0-0-0-0-0-0-0-0-0-0-0-0-0-0-0-|
D|-7--7--7--7--7--7--7--7--7--7--7--7--7--7--7--7-2-2-2-2-2-2-2-2-2-2-2-2-2-2-2-2-|
A|10-10-10-10-10-10-10-10-10-10-10-10-10-10-10-10 3-3-3-3-3-3-3-3-3-3-3-3-3-3-3-3-|
D|-7--7--7--7--7--7--7--7--7--7--7--7--7--7--7--7---------------------------------|
 |
e|-------------------------------------7------------------------------------------|
B|-----------------------------------8---8----------------------------------------|
G|--------------------------------------------5-5---------------------------------|
D|--------------------------------------------------------------------------------|
A|--------------------------------------------------------------------------------|
D|--------------------------------------------------------------------------------|

e|--------------------------------------------------------------------------------|
B|--------------------------------------------------------------------------------|
G|-9--9--9--9--9--9--9--9--9--9--9--9--9--9--9--9-0-0-0-0-0-0-0-0-0-0-0-0-0-0-0-0-|
D|-7--7--7--7--7--7--7--7--7--7--7--7--7--7--7--7-2-2-2-2-2-2-2-2-2-2-2-2-2-2-2-2-|
A|10-10-10-10-10-10-10-10-10-10-10-10-10-10-10-10 3-3-3-3-3-3-3-3-3-3-3-3-3-3-3-3-|
D|-7--7--7--7--7--7--7--7--7--7--7--7--7--7--7--7---------------------------------|
 |
e|-------------------------------------7------------------------------------------|
B|-----------------------------------8---8----------------------------------------|
G|--------------------------------------------5-5--------------------------0------|
D|---------------------------------------------------------------------0-0---2----|
A|--------------------------------------------------------------------------------|
D|--------------------------------------------------------------------------------|

(I'm going under...)
tremolo pick rapidly- with reverb and and volume pedal decreasing and increasing 
volume
e|-----------------------------------------------------------------------|
B|-----------------------------------------------=-----------------------|
G|--0-------------------------0------------------------------------------|
D|--7-------------------------2------------------------------------------|
A|--0-------------------------3----------------------------3b-3b-3b-3b-3b|
D|-----------------------------------------------------------------------|
 |
e|-----------------------------------------------------------------------|
B|----------------3-----0-------1------------3--------0------1-----------|
G|--------------0-----0-------0-----0------0---0----0------0---0-----2---|
D|-------------2-----2------------0---2--2--------2----------------0---2-|
A|--------------------------3----------------------------3---------------|
D|-----------------------------------------------------------------------|


Bridge 2 ('You can't trust a...)-both guitars  
e|-0-0-0-0-----0-0-0-0-0-0-0-0-0-0-0-0-0-0-0-0-0-0-0-0-0-0-0-0-0-0-0-|
B|-0-0-0-0-----0-0-0-0-0-0-0-0-0-0-0-0-0-0-0-0-0-0-0-0-0-0-0-0-0-0-0-|
G|-0-0-0-0-----0-0-0-0-0-0-0-0-0-0-0-0-0-0-0-0-0-0-0-0-0-0-0-0-0-0-0-|
D|-2-2-2-2/3\2-2-2-2-2-3-3-2-2-3-2-2-2-2-2-3-3-3-5-5-5-5-5-5-5-5-5-5-|
A|-----------------------------------3-3-3-3-3-3-3-3-3-3-3-3-3-3-3-3-|
D|-------------------------------------------------------------------|
 |                                          bend up on the second time  
e|------------------------------------------------------------/19b---|
B|-------------------------------------------------------------------|
G|-------------------------------------------------------------------|
D|-------------------------------------------------------------------|
A|-------------------------------------------------------------------|
E|-------------------------------------------------------------------|



Solo
e|-------------------------------------------------------------------------------|
B|-------------------------------------------------------------------------------|
G|-0-0-0-0-0-0-0-0-0-0-0-0--0-0-0-0-0-0-0-0-0-0-0-0--0-0-0-0-0-0-0-0-0-0-0-0---0-|
D|-2-2-2-2-2-2-2-2-2-2-2-2--3-3-3-3-3-3-3-3-3-3-3-3--2-2-2-2-2-2-2-2-2-2-2-2---3-|
A|-0-0-0-0-0-0-0-0-0-0-0-0--1-1-1-1-1-1-1-1-1-1-1-1--0-0-0-0-0-0-0-0-0-0-0-0---5-|
D|-------------------------------------------------------------------------------|
 |(with wah and delay)
e|--------------------------------17b---------------------------------------------|
B|----------------------17v-------------------------------------------------------|
G|-------------15v------15v----------------------16b------14----------------------|
D|----14v------14v------14v------------------------------------------14b-------12-|
A|--------------------------------------------------------------------------------|
D|--------------------------------------------------------------------------------|


Chorus 3
e|----------------------------------------------------------|
B|--------------3-------------------------------------------|
G|-----10-10-10-2-------------------------------------------|
D|-7-7-10-10-10-0-------------------------------------------|
A|-7-7--8--8--8-0-------------------------------------------|
D|-7-7--8--8--8-0-------------------------------------------|
 |
e|----------------------------------------------------------|
B|--------------3----12------15------12-----12h13p12--------|
G|-2-2--3--3--3-2---------12------12------12--------12--12--|
D|-2-2--3--3--3-0------14------14------14-------------14----|
A|-0-0--1--1--1-0-------------------------------------------|
D|--------------0-------------------------------------------|

e|-----------------------------------------------------------|
B|--------------3--------------------------------------------|
G|-----10-10-10-2--------------------------------------------|
D|-7-7-10-10-10-0--------------------------------------------|
A|-7-7--8--8--8-0--------------------------------------------|
D|-7-7--8--8--8-0-----------pick-scrape----------------------|
 |                               tremolo pick these chords
e|-----------------------------------------------------------|
B|-----------------------------------------------------------|
G|-2-/5--3-3--3----10/12\10/12\10/12\----10/12-12-14-14-17-17| 
D|-2-/5--3-3--3----------------------------------------------|
A|-0-/3--1-1--1----8/10\-8-/10\8/10\------8/10-10-12-12-15-15| 
D|-----------------------------------------------------------|


e|----------------------------------------------------------|
B|--------------3-------------------------------------------|
G|-----10-10-10-2-------------------------------------------|
D|-7-7-10-10-10-0-------------------------------------------|
A|-7-7--8--8--8-0-------------------------------------------|
D|-7-7--8--8--8-0-------------------------------------------|
 |
e|----------------------------------------------------------|
B|--------------3----12------15------12-----12h13p12--------|
G|-2-2--3--3--3-2---------12------12------12--------12--12--|
D|-2-2--3--3--3-0------14------14------14-------------14----|
A|-0-0--1--1--1-0-------------------------------------------|
D|--------------0-------------------------------------------|

e|----------------------------------------------------------|
B|---------------3------------------------------------------|
G|------10-10-10-2------------------------------------------|
D|-7-7--10-10-10-0------------------------------------------|
A|-7-7---8--8--8-0------------------------------------------|
D|-7-7---8--8--8-0------------------------------------------|
 |
e|----------------------------------------------------------|
B|----------------------------------------------------------|
G|-2-/5--3--3--3--------------10/12\10/12\10/12\10/12\10----|
D|-2-/5--3--3--3--------------------------------------------|
A|-0-/3--1--1--1---------------8/10\-8-/10\8/10\-8-/10\8----|
D|----------------------------------------------------------|

('How could you heal...')
e|----------------------------------------------------------|
B|--------------3-------------------------------------------|
G|-----10-10-10-2-------------------------------------------|
D|-7-7-10-10-10-0-------------------------------------------|
A|-7-7--8--8--8-0-------------------------------------------|
D|-7-7--8--8--8-0-------------------------------------------|
 | (tremolo pick rapidly)
e|-1010101010101010-8-8-8-8-8-8-101010101010-121212121212-|
B|-x-x-x-x-x-x-x-x--x-x-x-x-x-x-x-x-x-x-x-x--x-x-x-x-x-x--|
G|-7-7-7-7-7-7-7-7--5-5-5-5-5-5-7-7-7-7-7-7--9-9-9-9-9-9--|
D|--------------------------------------------------------|
A|--------------------------------------------------------|
D|--------------------------------------------------------|
 |(4:06) Piano arranged for Guitar (tremolo pick these notes)       
e|--------------------------------|
B|-------------17-----------------|
G|-19--17--19------17--19--14--10-|
D|--------------------------------|
A|--------------------------------|
D|--------------------------------|


e|--------------------------------------------------------|
B|---------------3----------------------------------------|
G|-----10-10-10--2----------------------------------------|
D|-7-7-10-10-10--0----------------------------------------|
A|-7-7--8--8--8--0----------------------------------------|
D|-7-7--8--8--8--0----------------------------------------|
 |
e|-8-8-8-8-8-8-8-8-1010101010-----------------------------|
B|-x-x-x-x-x-x-x-x-x-x-x-x-x------------------------------|
G|-5-5-5-5-5-5-5-5-7-7-7-7-7------------------------------|
D|-----------------------------------------------------0--|
A|-----------------------------5-5-5-5-5-5-5-5-5-5-5-5-5--|
D|--------------------------------------------------------|


e|--------------------------------------------------------|
B|--------------3-----------------------------------------|
G|-----10-10-10-2-----------------------------------------|
D|-7-7-10-10-10-0-----------------------------------------|
A|-7-7--8--8--8-0-----------------------------------------|
D|-7-7--8--8--8-0-----------------------------------------|
 |
e|-1010101010101010-8-8-8-8-8-8-15151515151515151515151515|
B|-x-x-x-x-x-x-x-x--x-x-x-x-x-x-x-x-x-x-x-x-x-x-x-x-x-x-x-|
G|-7-7-7-7-7-7-7-7--5-5-5-5-5-5-12121212121212121212121212|
D|--------------------------------------------------------|
A|--------------------------------------------------------|
D|--------------------------------------------------------|

e|--------------------------------------------------------|
B|--------------------------------------------------------|
G|-----10-10-10----------------------10/12\10/12\10/12\---|
D|-7-7-10-10-10-------------------------------------------|
A|-7-7--8--8--8-----------------------8/10\-8-/10\8/10\---|
E|-7-7--8--8--8-------------------------------------------|
 |
e|-1515151515151515-8-8-1010-8-8--------------------------|
B|-x-x-x-x-x-x-x-x--x-x-x-x--x-x--------------------------|
G|-1212121212121212-5-5-7-7--5-5--------------------------|
D|--------------------------------0-----------------------|
A|--------------------------------5v----------------------|
D|--------------------------------------------------------|
Comments