Glassjaw - Ape Dos Mil Chords & Tabs

 

Ape Dos Mil Chords & Tabs

Glassjaw Chords & Tabs

Version: 1 Type: Tab 0 ratings
1 star 2 stars 3 stars 4 stars 5 stars
comments

Ape Dos Mil Tab

GLASSJAW - APE DOS MIL

TAB BY CHRIS FLETCHER              iamajeenyus@hotmail.com

AWESOME FUCKIN' BAND, MORE PEOPLE HAVE GOT TO START LISTENIN' TO
THIS SHIT. ANYWAY, I'M NEW AT WRITTIN' TABS SO PLEASE FORGIVE ANY
MISTAKES. LISTEN TO THE TUNE FOR THE TIME, AND JUST SORT OF VIBRATE
THE NOTES A LITTLE, THEY PROBABLY USE SOME KIND OF AN EFFECT SO JUST
PLAY AROUND WITH IT. I ONLY HAD TIME FOR THIS LITTLE INTRO BIT, THEY
PLAY BITS OF THIS THROUGHOUT THE SONG, I'M WORKIN' ON THE REST, ANY 
HELP WOULD BE GREAT SO E-MAIL ME. HAVE FUN, YOUR LISTENIN' TO SOME 
AWESOME SHIT. IF YOU HAVEN'T ALREADY TRY OUT SOME 'SPARTA', 
'MARS VOLTA', OR SOME OLD 'AT THE DRIVE-IN'. LATER.
[ Tab from: http://www.guitartabs.cc/tabs/g/glassjaw/ape_dos_mil_tab.html ]
E|---------------------------------------------------------------|
B|---------------------------------------------------------------|
G|-----12~~-----9~~-----12p9~~-----12~~-----9~~------------------|
D|---------------------------------------------------------------|
A|---------------------------------------------------------------|
D|---------------------------------------------------------------|


E|---------------------------------------------------------------|
B|---------------------------------------------------------------|
G|-----12~~-----9~~-----12p9~~-----12/14~~-----14~~--------------|
D|---------------------------------------------------------------|
A|---------------------------------------------------------------|
D|---------------------------------------------------------------|


E|---------------------------------------------------------------|
B|--------------------------------------13~~-----15~~------------|
G|-----12/14~~---------------------------------------------------|
D|---------------------------------------------------------------|
A|---------------------------------------------------------------|
D|---------------------------------------------------------------|



* AFTER THAT INTRO BIT, SORT OF PALM MUTE SOMETHIN' I DON'T KNOW 
WHAT, BUT ANYTHING SORT OF WORKS. THEN FUCK AROUND WITH SOME
CHORDS. I'LL TAB IT OUT SOON.


Comments