Glasseater - Alone In The World Chords & Tabs

 

Alone In The World Chords & Tabs

Glasseater Chords & Tabs

Version: 1 Type: Tab 0 ratings
1 star 2 stars 3 stars 4 stars 5 stars
comments

Alone In The World Tab

Artist: Glasseater
Title: Alone in the world (Acoustic)
Tabbed by: Jordan Boesch
Tuning: Standard EADGBE

This is pretty exact.

--------------------------------------------------------------------------
Just repeat these 4 chords throughout the song.. ive given a preview below
(466xxx) (x4665x) (x7990x) (799xxx) (244xxx)
--------------------------------------------------------------------------

e|--------------------------------------------------|
B|-------------------555---------------555----------|
G|-------------------666---------------666----------|
D|--666-------666----666---------------666----------|
A|--666-------666----444---------------444----------|
E|--444-------444-----------------------------------|
       Since day one,    you've been away 

e|--------------------------------------------------|
B|--000---------000---------------------------------|
G|--999---------999---------------------------------|
D|--999---------999-----------999----------44---4---|
A|--777---------777-----------999----------44---4---|
E|----------------------------777----------22---2---|
        And since then you...    You've made me stay 
[ Tab from: http://www.guitartabs.cc/tabs/g/glasseater/alone_in_the_world_tab.html ]
e|--------------------------------------------------|
B|------------------------555---------555-----------|
G|------------------------666---------666-----------|
D|--666-------666---------666---------666-----------|
A|--666-------666---------444---------444-----------|
E|--444-------444-----------------------------------|
       Alone in a world where I'd like to hear 

e|--------------------------------------------------|
B|--000---------000---------------------------------|
G|--999---------999---------------------------------|
D|--999---------999--999----------44---4------------|
A|--777---------777--999----------44---4------------|
E|-------------------777----------22---2------------|
       The words of approval ringing in my ear 



Cause I don't ask for much 
Yet I want it all 
I've gained nothing from this 
You want to see me fall 

What we will stick to our passions 
We'll keep playing far and away 
Alone in a world where I'd like to see 
The smile on your face that means security 

Cause I don't ask for much 
Yet i want it all 
I've gained nothing from this 
You want to see me fall 

Don't live life by the norm' in society 
Do what you have to do to keep you happy 
So what if it doesn't matter to them at all 
It makes sense to you keep on, don't stall 

Cause I don't ask for much 
Yet I want it all 
I've gained nothing from this 
You want to see me fall
Comments