Glass Towers - Jumanji Chords & Tabs

 

Jumanji Chords & Tabs

Glass Towers Chords & Tabs

Version: 1 Type: Bass Tab 0 ratings
1 star 2 stars 3 stars 4 stars 5 stars
comments

Jumanji Bass Tab

   
-------------------------------------------------------------------------------
                             Jumanji - Glass Towers
-------------------------------------------------------------------------------
Tabbed by: Dakota Smolders

Tuning: Standard


Intro x1 (Fade in with an effect)
G|---------------------------4h6----|
D|----99-9-679----------66-6----6-4-|
A|-7-----------9------4-------------|
E|----------------------------------|

Intro Cont'd x4
G|---------------------------4h6----|
D|----99-9-679----------66-6----6-4-|
A|-7-----------9------4-------------|
E|----------------------------------|

Verse x6
G|-----------|
D|-------66~-|
A|-7~-\4~----|
E|-----------|

The verse may also possibly be played like this:
G|--------------|
D|---99~----66~-|
A|-7~----\4~----|
E|--------------|

Pre-Chorus x2
G|---------------------------4h6----|
D|----99-9-679----------66-6----6-4-|
A|-7-----------9------4-------------|
E|----------------------------------|
[ Tab from: http://www.guitartabs.cc/tabs/g/glass_towers/jumanji_btab.html ]
Chorus x2
G|----------------------------------|
D|----------------------------------|
A|----------------------------------|
E|-5-5-5~---5-5-5~---0-0-0~---0-0-0~|

Verse x5
G|-----------|
D|-------66~-|
A|-7~-\4~----|
E|-----------|

Verse Cont'd
G|--------------|
D|--------------|
A|-7~-\44444444-|
E|--------------|

Chorus x4
G|----------------------------------|
D|----------------------------------|
A|----------------------------------|
E|-5-5-5~---5-5-5~---0-0-0~---0-0-0~|

Bridge x8
G|-------------------------|
D|-------------------------|
A|-7-77-7-77-7-77/11-12-11-|
E|-------------------------|

Outro x3
G|---------------------------4h6----|
D|----99-9-679----------66-6----6-4-|
A|-7-----------9------4-------------|
E|----------------------------------|

Outro Cont'd
G|---------------------------4h6-----|
D|----99-9-679----------66-6----6-44-|
A|-7-----------9------4--------------|
E|-----------------------------------|


| /  slide up
| \  slide down
| h  hammer-on
| p  pull-off
| ~  vibrato
| +  harmonic
| x  Mute note
===============================================================================
Comments