Glass Jaw - When One Eight Becomes Two Zeros Chords & Tabs

 

When One Eight Becomes Two Zeros Chords & Tabs

Glass Jaw Chords & Tabs

Version: 2 Type: Tab 0 ratings
1 star 2 stars 3 stars 4 stars 5 stars
comments

When One Eight Becomes Two Zeros Tab

   
Artist - GlassJAw
Song   - When One Eight Becomes Two Zeros
Album  - Everything You Ever Wanted To Know About Silence
Tuning - DADGBE
Tabbed by David Diuguid (aka bmskate/DEFreak13)
Date: 01/03/02

pm... = palm mute
^#    = bend (to note of #)
r#    = release bend (to note of #)
s     = slide
/\    = hammer on/off
 h = harmonic
(#)   = don't pick the note; slide down/up to that # or start at that # (relative, not approximate)

[ Tab from: http://www.guitartabs.cc/tabs/g/glass_jaw/when_one_eight_becomes_two_zeros_tab_ver_2.html ]
Intro - Guitar 2 [distortion/chorus/tremolo] (0:07) (1:39) (3:37)
"Glad when your near, sad that your here, this is what it's like to be me"
|------------|---------------|------------|------------------|
|----6--5--6-|----6--5--6----|----6--5--6-|----6--5-----5----|
|-7----------|-7-----------5-|-5----------|-7--------5-----5-|
|------------|---------------|------------|------------------|
|------------|---------------|------------|------------------|
|------------|---------------|------------|------------------|


Intro - Guitar 1 [distortion/tremolo] (0:07) (1:39)
"Glad when your near, sad that your here, this is what it's like to be me"
|-0-|
|-3-|
|-2-|
|-0-|
|-0-|
|-0-|


Verse - Guitar 2 [chorus/tremolo] (0:46) (1:52)
"This all hurts me so much, that i honestly believe you're the one this is hard for..."
|---0-----0-------3-------3---|-----------|
|-6-----6---6---6---6---6---6-|-----------|
|-----5-------5-------5-------|-----------|
|-----------------------------|-0-0---0-0-|
Comments