Glass Jaw - When One Eight Becomes Two Zeros Chords & Tabs

 

When One Eight Becomes Two Zeros Chords & Tabs

Glass Jaw Chords & Tabs

Version: 1 Type: Bass Tab 0 ratings
1 star 2 stars 3 stars 4 stars 5 stars
comments

When One Eight Becomes Two Zeros Bass Tab

Glass Jaw- When One Eight Becomes Two Zeros  
Tabbed By Jesse Krupocin
JK976783@aol.com
(#)- Let note ring
(h)- Hammer On
(p)- Pull Off
*NOTE*-can also be played in EADG, just move every D note down 2

Play in Intro (and "This is what its Like to be me...")
G  :--------------|
D  :--------------|
A  :55555h6p5-----|
D  :--------------|

Played 1st During Slow Part (sounds better slapped)
G  :------------------|
D  :------------------|
A  :------------------|
D  :00----00----------|
[ Tab from: http://www.guitartabs.cc/tabs/g/glass_jaw/when_one_eight_becomes_two_zeros_btab.html ]
Played 2nd During Slow part
G  :7-5-4h5p4h5p4-------------------------|
D  :-------------(3)---0233---------------|
A  :-----------------------3h5\0----------|
D  :--------------------------------------|

"We're breakin out..."
G  :------------------------|
D  :------------------------|
A  :------------------------|
D  :0001----0001------0001--|

Change at end of song
(.'s are just to indicate 12 instead of 1 and 2)
G  :---------------------------------------------------|
D  :-----------------11.11.11.999----------------------|
A  :-----------------------------9---------99977777----|
D  :12.12.12.12.12.12-------------899999999--------11.-|

Play parts as needed

Comments