Glass Jaw - Piano Chords & Tabs

 

Piano Chords & Tabs

Glass Jaw Chords & Tabs

Version: 2 Type: Tab 0 ratings
1 star 2 stars 3 stars 4 stars 5 stars
comments

Piano Tab

   
abbed by glassjawguy
e-mail-glass_soul00@yahoo.com
check out my band at: www.angelfire.com/rock2/mindstyle


intro and lead chorus
E-----12---12--12--12-------15---15---15---15--
B---13---13---13--13-13---13---13---13---13--13
G-10--------------------10---------------------
D----------------------------------------------
A----------------------------------------------
D----------------------------------------------

Chorus: i have seen other people play it many different ways but i think it goes
E------------------------------------------------------------------------------------
B------------------------------------------------------------------------------------
G---------5-5-5-5---------5-5-5-5---------3-3-3-3-3-3-3-3-3-3-3-3-3-3-3--------------
D-0-0-0-0-3-3-3-3-0-0-0-0-3-3-3-3-0-0-0-0-1-1-1-1-1-1-1-1-1-1-1-1-1-1-1--------------
A-0-0-0-0-3-3-3-3-0-0-0-0-3-3-3-3-0-0-0-0-1-1-1-1-1-1-1-1-1-1-1-1-1-1-1--------------
D-0-0-0-0---------0-0-0-0---------0-0-0-0--------------------------------------------
on the third time it goes 3then0 
[ Tab from: http://www.guitartabs.cc/tabs/g/glass_jaw/piano_tab_ver_2.html ]
verse opener
D-4-4
A-4-4
D-4-4

verse palm muted
D-4-4-4-4-4-4-4-4-0-0-0-0-0-0-0-0-2-2-2-2-2-2-2-2-0-0-0-0-0-0-0-0
A-4-4-4-4-4-4-4-4-0-0-0-0-0-0-0-0-2-2-2-2-2-2-2-2-0-0-0-0-0-0-0-0
D-4-4-4-4-4-4-4-4-0-0-0-0-0-0-0-0-2-2-2-2-2-2-2-2-0-0-0-0-0-0-0-0

lead part to verse
E-------------------7---
B-5h4-----------5h7-----
G----4--6--4h6----------
D-----6--4--------------
A-----------------------
D-----------------------


bridge
E------------------------------------------------------------7---
B-0-0-0-0-0-4-4-4-4-5-5-5-5-5-4h5-4-0-0-0-0-0-4-4-4-4-5-5-5-5-4-5
G----------------------------------------------------------------
D----------------------------------------------------------------
A----------------------------------------------------------------
D----------------------------------------------------------------

the 2nd guitar is something palm muted

the ending
D-11-11-11-11-11-11-11-11-11-7-7-7-9-9-9-9-9-9-9-9-9-4-4-4
A-11-11-11-11-11-11-11-11-11-7-7-7-9-9-9-9-9-9-9-9-9-4-4-4
D-11-11-11-11-11-11-11-11-11-7-7-7-9-9-9-9-9-9-9-9-9-4-4-4


Comments