Glass Jaw - Modern Love Story Chords & Tabs

 

Modern Love Story Chords & Tabs

Glass Jaw Chords & Tabs

Version: 1 Type: Tab 0 ratings
1 star 2 stars 3 stars 4 stars 5 stars
comments

Modern Love Story Tab

Artist - GlassJAw
Song   - Modern Love Story
Album  - n/a (Ry Ry's Song Single)
Tuning - DADGBE
Tabbed by David Diuguid (aka bmskate/DEFreak13)
Date: 12/14/01

pm... = palm mute
^#    = bend (to note of #)
r#    = release bend (to note of #)
s     = slide
/\    = hammer on/off
   = harmonic
(#)   = don't pick the note; slide down/up to that # or start at that # (relative, not approximate)


Intro - Guitar 1 [distortion] (0:00)
|-----------------------------------------|
|-----------------------------------------|
|-6--6-6-9-9-4-4-7-7-7-6--6-6-9-9-4-4-7-7-|
|-6--6-6-9-9-4-4-7-7-7-6--6-6-9-9-4-4-7-7-|
|-4--4-4-7-7-2-2-5-5-5-4--4-4-7-7-2-2-5-5-|
|-----------------------------------------|


Intro - Guitar 2 [distortion] (0:00)
|---------------|
|---------------|
|---------------|
|-6-----------6-|
|-4-----------4-|
|-4---14s16s4-4-|

[ Tab from: http://www.guitartabs.cc/tabs/g/glass_jaw/modern_love_story_tab.html ]
1st & 2nd Verse - Both Guitars [distortion] (0:04) (0:22)
|----------------------------------------------------|-----------------|
|----------------------------------------------------|-----------------|
|-6--6-6-9-9-4-4-7-7-7-6-----------------4-4-4-7-7-7-|-6---4-4-4-7-7-7-| *only guitar 1
|-6--6-6-9-9-4-4-7-7-7-6-----------------4-4-4-7-7-7-|-6---4-4-4-7-7-7-|  plays the
|-4--4-4-7-7-2-2-5-5-5-4-----------2-2-2-5-5-5-|-4---2-2-2-5-5-5-|  harmonics
|-------------------------------------------|-----------------| 


Chorus - Both Guitars [distortion] (0:13) (0:31) (0:53)
|-----------------------------------------------------|
|-----------------------------------------------------|
|-----------------------------------------------------|
|-6-6--6-6-6--6-6-6--6-2-----6-6--6-6-6--6-6-6--6-7-9-|
|-6-6--6-6-6--6-6-6--6-2-----6-6--6-6-6--6-6-6--6-7-9-|
|-4-4--4-4-4--4-4-4--4-0-----4-4--4-4-4--4-4-4--4-5-7-|


Fill - Guitar 1 [distortion] (0:40)
|-----------|
|-----------|
|---------6-|
|---------6-|
|---------4-|
|-12s16s4-4-|


Fill - Guitar 2 [distortion] (0:40)
|----------------|
|----------------|
|-6--------------|
|-6--------------|
|-4--------------|
|-4-(pickscrape)-|


3rd Verse - Both Guitars [distortion] (0:44)
pm.............................                         ..............
|---------------------------------------------------------------------| *only guitar 2
|---------------------------------------------------------------------|  plays harmonics
|-6-6--6-6-6--6-4-4--4-7-7--7-6-------------------------4-4--4-7-7--7-| *guitar 1 lets
|-6-6--6-6-6--6-4-4--4-7-7--7-6-------------------------4-4--4-7-7--7-|  off pm and plays 
|-4-4--4-4-4--4-2-2--2-5-5--5-4-------------------------2-2--2-5-5--5-|
Comments