Glass Jaw - Harlem Chords & Tabs

 

Harlem Chords & Tabs

Glass Jaw Chords & Tabs

Version: 1 Type: Tab 0 ratings
1 star 2 stars 3 stars 4 stars 5 stars
comments

Harlem Tab

   
Glassjaw, "Harlem"
Matthew K. Turner / mkt@ampwire.com
this is my first ever attempt at a tab. please correct any mistakes
because i know there are plenty!

http://www.undevoured.com/glassjaw
----------------

picking strings 'GBE' in some random order above the neck.

Intro (1:02)

E--0000-000------
B--xxxx-xxx------   just do some hammer-ons/offs and bends in the middle. work with it to get whatever sounds best
G--7777p8p8------
D----------------
A----------------
D----------------

Interlude to Verses (1:20)

E------------------
B------------------
G------------------
D-1111-1111-111111-
A-1111-1111-111111-
D-1111-1111-111111-

Verse (1:23)

E--0000-000------
B--xxxx-xxx------
G--7777p8p8------
D----------------
A----------------
D----------------

Verse Break (1:34)

E------------------------------------------------
B------------------------------------------------
G------------------------------------------------
D-7-5-66-7-5-66-4-2-4-5-4-0-7-5-66-7-5-66-111111-
A-7-5-66-7-5-66-4-2-4-5-4-0-7-5-66-7-5-66-111111-
D-7-5-66-7-5-66-4-2-4-5-4-0-7-5-66-7-5-66-111111-
[ Tab from: http://www.guitartabs.cc/tabs/g/glass_jaw/harlem_tab.html ]
E-----------------------------------------
B-----------------------------------------
G-----------------------------------------
D-7-5-66-7-5-66-4-2-4-5-4-0-7-5-66-7-5-66-
A-7-5-66-7-5-66-4-2-4-5-4-0-7-5-66-7-5-66-
D-7-5-66-7-5-66-4-2-4-5-4-0-7-5-66-7-5-66-

Chrous (2:14)

E--000000
B--000000
G--777888
D--------
A--------
D--------

Post Chorus (2:37)

E------------
B------------
G------------      repeated a lot.
D-4-2-4-5-4-0
A-4-2-4-5-4-0
D-4-2-4-5-4-0

Then scrape the D string back and forth and play

D-111122221111222 then ///// (slide without scrape)|

2nd Type of verse (2:46)

E----------------
B----------------
G----------------
D-----222----222-
A-----222----222-
D-1111---1111----

Verse Break (2:58) "Me? NO, NO"

(play the verse)

E--0000-000------  
B--xxxx-xxx------
G--7777p8p8------
D----------------
A----------------
D----------------

E------------
B------------
G------------     x1
D-4-2-4-5-4-0
A-4-2-4-5-4-0
D-4-2-4-5-4-0

E--0000-000------  
B--xxxx-xxx------
G--7777p8p8------  then play this like x5
D----------------
A----------------
D----------------

E------------
B------------
G------------     then repeat this a lot again. 
D-4-2-4-5-4-0     
A-4-2-4-5-4-0
D-4-2-4-5-4-0

Open ring(3:26)

E-0--------------
B-0--------------
G-0--------------
D-0--------------
A-0--------------
D-0--------------

Chorus (3:30)

E--000000
B--000000
G--777888  repeated then it eventually just stops, with singing and bass and what not
D--------  thats it.
A--------
D--------
Comments